ISO-10303-21;
HEADER;
FILE_DESCRIPTION (( 'STEP AP203' ),
    '1' );
FILE_NAME ('B000FMWD7Q.3D.STEP',
    '2013-01-16T10:02:01',
    ( '' ),
    ( '' ),
    'SwSTEP 2.0',
    'SolidWorks 2010',
    '' );
FILE_SCHEMA (( 'CONFIG_CONTROL_DESIGN' ));
ENDSEC;

DATA;
#1 = CONICAL_SURFACE ( 'NONE', #4, 8.255000000000002600, 0.1651486774146269700 ) ;
#2 = DIRECTION ( 'NONE',  ( 0.0000000000000000000, 0.0000000000000000000, 1.000000000000000000 ) ) ;
#3 = DIRECTION ( 'NONE',  ( -1.000000000000000000, -0.0000000000000000000, -6.123031769111888800E-017 ) ) ;
#4 = AXIS2_PLACEMENT_3D ( 'NONE', #5, #7, #6 ) ;
#5 = CARTESIAN_POINT ( 'NONE',  ( -3.107541486505397200E-015, 0.0000000000000000000, 0.0000000000000000000 ) ) ;
#6 = DIRECTION ( 'NONE',  ( -6.123031769111887500E-017, 0.0000000000000000000, 1.000000000000000000 ) ) ;
#7 = DIRECTION ( 'NONE',  ( -1.000000000000000000, -0.0000000000000000000, -6.123031769111888800E-017 ) ) ;
#8 = APPLICATION_CONTEXT ( 'configuration controlled 3d designs of mechanical parts and assemblies' ) ;
#9 = APPLICATION_PROTOCOL_DEFINITION ( 'international standard', 'config_control_design', 1994, #8 ) ;
#10 = APPLICATION_CONTEXT ( 'configuration controlled 3d designs of mechanical parts and assemblies' ) ;
#11 = MECHANICAL_CONTEXT ( 'NONE', #8, 'mechanical' ) ;
#12 = APPLICATION_PROTOCOL_DEFINITION ( 'international standard', 'config_control_design', 1994, #10 ) ;
#13 = LOCAL_TIME ( 15, 32, 1.000000000000000000, #19 ) ;
#14 = DESIGN_CONTEXT ( 'detailed design', #10, 'design' ) ;
#15 = APPROVAL_ROLE ( '' ) ;
#16 = APPROVAL ( #20, 'UNSPECIFIED' ) ;
#17 = PRODUCT_DEFINITION ( 'UNKNOWN', '', #193, #14 ) ;
#18 = PERSON_AND_ORGANIZATION ( #26, #131 ) ;
#19 = COORDINATED_UNIVERSAL_TIME_OFFSET ( 5, 30, .AHEAD. ) ;
#20 = APPROVAL_STATUS ( 'not_yet_approved' ) ;
#21 = APPROVAL_PERSON_ORGANIZATION ( #18, #16, #15 ) ;
#22 = CALENDAR_DATE ( 2013, 16, 1 ) ;
#23 = APPROVAL_DATE_TIME ( #25, #16 ) ;
#24 = CC_DESIGN_APPROVAL ( #16, ( #17 ) ) ;
#25 = DATE_AND_TIME ( #22, #13 ) ;
#26 = PERSON ( 'UNSPECIFIED', 'UNSPECIFIED', 'UNSPECIFIED', ('UNSPECIFIED'), ('UNSPECIFIED'), ('UNSPECIFIED') ) ;
#27 = PRODUCT ( 'B000FMWD7Q.3D', 'B000FMWD7Q.3D', '', ( #11 ) ) ;
#28 = EDGE_LOOP ( 'NONE', ( #29, #97 ) ) ;
#29 = ORIENTED_EDGE ( 'NONE', *, *, #40, .F. ) ;
#30 = ORIENTED_EDGE ( 'NONE', *, *, #46, .T. ) ;
#31 = EDGE_CURVE ( 'NONE', #64, #39, #86, .T. ) ;
#32 = ORIENTED_EDGE ( 'NONE', *, *, #61, .F. ) ;
#33 = ADVANCED_FACE ( 'NONE', ( #88 ), #80, .F. ) ;
#34 = ORIENTED_EDGE ( 'NONE', *, *, #40, .T. ) ;
#35 = ORIENTED_EDGE ( 'NONE', *, *, #38, .T. ) ;
#36 = CARTESIAN_POINT ( 'NONE',  ( 0.0000000000000000000, 0.0000000000000000000, 1.902757524570573000E-031 ) ) ;
#37 = EDGE_CURVE ( 'NONE', #39, #64, #106, .T. ) ;
#38 = EDGE_CURVE ( 'NONE', #47, #39, #66, .T. ) ;
#39 = VERTEX_POINT ( 'NONE', #113 ) ;
#40 = EDGE_CURVE ( 'NONE', #41, #47, #114, .T. ) ;
#41 = VERTEX_POINT ( 'NONE', #162 ) ;
#42 = ORIENTED_EDGE ( 'NONE', *, *, #109, .T. ) ;
#43 = ORIENTED_EDGE ( 'NONE', *, *, #50, .F. ) ;
#44 = EDGE_LOOP ( 'NONE', ( #49, #112, #69, #70 ) ) ;
#45 = ORIENTED_EDGE ( 'NONE', *, *, #110, .F. ) ;
#46 = EDGE_CURVE ( 'NONE', #108, #51, #124, .T. ) ;
#47 = VERTEX_POINT ( 'NONE', #126 ) ;
#48 = ORIENTED_EDGE ( 'NONE', *, *, #37, .F. ) ;
#49 = ORIENTED_EDGE ( 'NONE', *, *, #109, .F. ) ;
#50 = EDGE_CURVE ( 'NONE', #51, #108, #125, .T. ) ;
#51 = VERTEX_POINT ( 'NONE', #161 ) ;
#52 = ADVANCED_FACE ( 'NONE', ( #154 ), #127, .F. ) ;
#53 = AXIS2_PLACEMENT_3D ( 'NONE', #78, #77, #57 ) ;
#54 = DIRECTION ( 'NONE',  ( -0.9863939238321436400, 2.013306935865723200E-017, -0.1643989873053574900 ) ) ;
#55 = VECTOR ( 'NONE', #54, 1000.000000000000100 ) ;
#56 = CARTESIAN_POINT ( 'NONE',  ( -2.602085213965210600E-015, 1.010945932696140300E-015, -8.255000000000002600 ) ) ;
#57 = DIRECTION ( 'NONE',  ( -6.123031769111887500E-017, 0.0000000000000000000, 1.000000000000000000 ) ) ;
#58 = DIRECTION ( 'NONE',  ( -6.123031769111887500E-017, 0.0000000000000000000, 1.000000000000000000 ) ) ;
#59 = DIRECTION ( 'NONE',  ( 1.000000000000000000, 0.0000000000000000000, 6.123031769111888800E-017 ) ) ;
#60 = ORIENTED_EDGE ( 'NONE', *, *, #50, .T. ) ;
#61 = EDGE_CURVE ( 'NONE', #63, #79, #129, .T. ) ;
#62 = EDGE_CURVE ( 'NONE', #41, #64, #145, .T. ) ;
#63 = VERTEX_POINT ( 'NONE', #141 ) ;
#64 = VERTEX_POINT ( 'NONE', #153 ) ;
#65 = ORIENTED_EDGE ( 'NONE', *, *, #62, .F. ) ;
#66 = LINE ( 'NONE', #56, #55 ) ;
#67 = DIRECTION ( 'NONE',  ( -6.829619984160658000E-017, 0.0000000000000000000, 1.000000000000000000 ) ) ;
#68 = EDGE_LOOP ( 'NONE', ( #72, #48 ) ) ;
#69 = ORIENTED_EDGE ( 'NONE', *, *, #110, .T. ) ;
#70 = ORIENTED_EDGE ( 'NONE', *, *, #46, .F. ) ;
#71 = EDGE_LOOP ( 'NONE', ( #60, #30 ) ) ;
#72 = ORIENTED_EDGE ( 'NONE', *, *, #31, .F. ) ;
#73 = ADVANCED_FACE ( 'NONE', ( #159, #140 ), #134, .T. ) ;
#74 = EDGE_LOOP ( 'NONE', ( #83, #76 ) ) ;
#75 = ORIENTED_EDGE ( 'NONE', *, *, #38, .F. ) ;
#76 = ORIENTED_EDGE ( 'NONE', *, *, #61, .T. ) ;
#77 = DIRECTION ( 'NONE',  ( -1.000000000000000000, -0.0000000000000000000, -6.123031769111888800E-017 ) ) ;
#78 = CARTESIAN_POINT ( 'NONE',  ( -3.107541486505397200E-015, 0.0000000000000000000, 0.0000000000000000000 ) ) ;
#79 = VERTEX_POINT ( 'NONE', #160 ) ;
#80 = CYLINDRICAL_SURFACE ( 'NONE', #100, 6.349999999999999600 ) ;
#81 = DIRECTION ( 'NONE',  ( -1.000000000000000000, 0.0000000000000000000, -6.123031769111890000E-017 ) ) ;
#82 = ADVANCED_FACE ( 'NONE', ( #139 ), #85, .T. ) ;
#83 = ORIENTED_EDGE ( 'NONE', *, *, #111, .T. ) ;
#84 = ORIENTED_EDGE ( 'NONE', *, *, #95, .T. ) ;
#85 = CONICAL_SURFACE ( 'NONE', #53, 8.255000000000002600, 0.1651486774146269700 ) ;
#86 = CIRCLE ( 'NONE', #89, 8.255000000000002600 ) ;
#87 = CARTESIAN_POINT ( 'NONE',  ( 3.810000000000000100, 0.0000000000000000000, 2.332875104031630400E-016 ) ) ;
#88 = FACE_OUTER_BOUND ( 'NONE', #92, .T. ) ;
#89 = AXIS2_PLACEMENT_3D ( 'NONE', #104, #103, #102 ) ;
#90 = ADVANCED_FACE ( 'NONE', ( #116 ), #1, .T. ) ;
#91 = EDGE_LOOP ( 'NONE', ( #34, #35, #98, #65 ) ) ;
#92 = EDGE_LOOP ( 'NONE', ( #32, #42, #43, #45 ) ) ;
#93 = EDGE_LOOP ( 'NONE', ( #75, #84, #96, #94 ) ) ;
#94 = ORIENTED_EDGE ( 'NONE', *, *, #31, .T. ) ;
#95 = EDGE_CURVE ( 'NONE', #47, #41, #171, .T. ) ;
#96 = ORIENTED_EDGE ( 'NONE', *, *, #62, .T. ) ;
#97 = ORIENTED_EDGE ( 'NONE', *, *, #95, .F. ) ;
#98 = ORIENTED_EDGE ( 'NONE', *, *, #37, .T. ) ;
#99 = MANIFOLD_SOLID_BREP ( 'LUMP1', #105 ) ;
#100 = AXIS2_PLACEMENT_3D ( 'NONE', #87, #81, #67 ) ;
#101 = AXIS2_PLACEMENT_3D ( 'NONE', #36, #59, #58 ) ;
#102 = DIRECTION ( 'NONE',  ( -6.123031769111887500E-017, 0.0000000000000000000, 1.000000000000000000 ) ) ;
#103 = DIRECTION ( 'NONE',  ( 1.000000000000000000, 0.0000000000000000000, 6.123031769111888800E-017 ) ) ;
#104 = CARTESIAN_POINT ( 'NONE',  ( 0.0000000000000000000, 0.0000000000000000000, 1.902757524570573000E-031 ) ) ;
#105 = CLOSED_SHELL ( 'NONE', ( #90, #33, #52, #107, #73, #82 ) ) ;
#106 = CIRCLE ( 'NONE', #101, 8.255000000000002600 ) ;
#107 = ADVANCED_FACE ( 'NONE', ( #211, #191 ), #210, .T. ) ;
#108 = VERTEX_POINT ( 'NONE', #176 ) ;
#109 = EDGE_CURVE ( 'NONE', #63, #108, #216, .T. ) ;
#110 = EDGE_CURVE ( 'NONE', #79, #51, #209, .T. ) ;
#111 = EDGE_CURVE ( 'NONE', #79, #63, #175, .T. ) ;
#112 = ORIENTED_EDGE ( 'NONE', *, *, #111, .F. ) ;
#113 = CARTESIAN_POINT ( 'NONE',  ( 5.054562725401864600E-016, 1.010945932696140300E-015, -8.255000000000002600 ) ) ;
#114 = CIRCLE ( 'NONE', #130, 6.985000000000000300 ) ;
#115 = CC_DESIGN_PERSON_AND_ORGANIZATION_ASSIGNMENT ( #118, #117, ( #27 ) ) ;
#116 = FACE_OUTER_BOUND ( 'NONE', #91, .T. ) ;
#117 = PERSON_AND_ORGANIZATION_ROLE ( 'design_owner' ) ;
#118 = PERSON_AND_ORGANIZATION ( #26, #131 ) ;
#119 = DIRECTION ( 'NONE',  ( 6.123031769111890000E-017, 0.0000000000000000000, -1.000000000000000000 ) ) ;
#120 = DIRECTION ( 'NONE',  ( -6.123031769111890000E-017, 0.0000000000000000000, 1.000000000000000000 ) ) ;
#121 = DIRECTION ( 'NONE',  ( 1.000000000000000000, -0.0000000000000000000, 6.123031769111890000E-017 ) ) ;
#122 = CARTESIAN_POINT ( 'NONE',  ( 0.0000000000000000000, 0.0000000000000000000, 0.0000000000000000000 ) ) ;
#123 = AXIS2_PLACEMENT_3D ( 'NONE', #122, #121, #120 ) ;
#124 = CIRCLE ( 'NONE', #123, 6.349999999999999600 ) ;
#125 = CIRCLE ( 'NONE', #152, 6.349999999999999600 ) ;
#126 = CARTESIAN_POINT ( 'NONE',  ( 7.620000000000001900, 9.331808609502833000E-016, -6.984999999999999400 ) ) ;
#127 = CYLINDRICAL_SURFACE ( 'NONE', #155, 6.349999999999999600 ) ;
#128 = CARTESIAN_POINT ( 'NONE',  ( 7.620000000000001900, 0.0000000000000000000, 4.665750208063261800E-016 ) ) ;
#129 = CIRCLE ( 'NONE', #148, 6.349999999999999600 ) ;
#130 = AXIS2_PLACEMENT_3D ( 'NONE', #128, #157, #156 ) ;
#131 = ORGANIZATION ( 'UNSPECIFIED', 'UNSPECIFIED', '' ) ;
#132 = CARTESIAN_POINT ( 'NONE',  ( 7.620000000000000100, 4.665750208063260800E-016, -3.492500000000000200 ) ) ;
#133 = DIRECTION ( 'NONE',  ( 1.000000000000000000, -0.0000000000000000000, 6.123031769111890000E-017 ) ) ;
#134 = PLANE ( 'NONE',  #142 ) ;
#135 = DIRECTION ( 'NONE',  ( -0.9863939238321436400, 0.0000000000000000000, 0.1643989873053573700 ) ) ;
#136 = VECTOR ( 'NONE', #135, 1000.000000000000100 ) ;
#137 = DIRECTION ( 'NONE',  ( 0.0000000000000000000, 0.0000000000000000000, 1.000000000000000000 ) ) ;
#138 = DIRECTION ( 'NONE',  ( -1.000000000000000000, 0.0000000000000000000, -6.123031769111890000E-017 ) ) ;
#139 = FACE_OUTER_BOUND ( 'NONE', #93, .T. ) ;
#140 = FACE_BOUND ( 'NONE', #74, .T. ) ;
#141 = CARTESIAN_POINT ( 'NONE',  ( 7.620000000000000100, 7.776507174585692200E-016, -6.349999999999998800 ) ) ;
#142 = AXIS2_PLACEMENT_3D ( 'NONE', #132, #133, #119 ) ;
#143 = DIRECTION ( 'NONE',  ( -6.829619984160658000E-017, 0.0000000000000000000, 1.000000000000000000 ) ) ;
#144 = CARTESIAN_POINT ( 'NONE',  ( -3.612997759045583800E-015, 0.0000000000000000000, 8.255000000000002600 ) ) ;
#145 = LINE ( 'NONE', #144, #136 ) ;
#146 = DIRECTION ( 'NONE',  ( -1.000000000000000000, 0.0000000000000000000, -6.123031769111890000E-017 ) ) ;
#147 = CARTESIAN_POINT ( 'NONE',  ( 3.810000000000000100, 0.0000000000000000000, 2.332875104031630400E-016 ) ) ;
#148 = AXIS2_PLACEMENT_3D ( 'NONE', #158, #138, #137 ) ;
#149 = DIRECTION ( 'NONE',  ( -6.123031769111890000E-017, 0.0000000000000000000, 1.000000000000000000 ) ) ;
#150 = DIRECTION ( 'NONE',  ( 1.000000000000000000, -0.0000000000000000000, 6.123031769111890000E-017 ) ) ;
#151 = CARTESIAN_POINT ( 'NONE',  ( 0.0000000000000000000, 0.0000000000000000000, 0.0000000000000000000 ) ) ;
#152 = AXIS2_PLACEMENT_3D ( 'NONE', #151, #150, #149 ) ;
#153 = CARTESIAN_POINT ( 'NONE',  ( -5.054562725401864600E-016, 0.0000000000000000000, 8.255000000000002600 ) ) ;
#154 = FACE_OUTER_BOUND ( 'NONE', #44, .T. ) ;
#155 = AXIS2_PLACEMENT_3D ( 'NONE', #147, #146, #143 ) ;
#156 = DIRECTION ( 'NONE',  ( 0.0000000000000000000, 0.0000000000000000000, 1.000000000000000000 ) ) ;
#157 = DIRECTION ( 'NONE',  ( -1.000000000000000000, -0.0000000000000000000, -6.123031769111888800E-017 ) ) ;
#158 = CARTESIAN_POINT ( 'NONE',  ( 7.620000000000000100, 0.0000000000000000000, 4.665750208063260800E-016 ) ) ;
#159 = FACE_OUTER_BOUND ( 'NONE', #28, .T. ) ;
#160 = CARTESIAN_POINT ( 'NONE',  ( 7.620000000000000100, 0.0000000000000000000, 6.350000000000000500 ) ) ;
#161 = CARTESIAN_POINT ( 'NONE',  ( -3.888125173386050200E-016, 0.0000000000000000000, 6.349999999999999600 ) ) ;
#162 = CARTESIAN_POINT ( 'NONE',  ( 7.620000000000001900, 0.0000000000000000000, 6.985000000000000300 ) ) ;
#163 = CC_DESIGN_PERSON_AND_ORGANIZATION_ASSIGNMENT ( #172, #166, ( #17 ) ) ;
#164 = DATE_TIME_ROLE ( 'creation_date' ) ;
#165 = CALENDAR_DATE ( 2013, 16, 1 ) ;
#166 = PERSON_AND_ORGANIZATION_ROLE ( 'creator' ) ;
#167 = DATE_AND_TIME ( #165, #168 ) ;
#168 = LOCAL_TIME ( 15, 32, 1.000000000000000000, #173 ) ;
#169 = CARTESIAN_POINT ( 'NONE',  ( 7.620000000000001900, 0.0000000000000000000, 4.665750208063261800E-016 ) ) ;
#170 = AXIS2_PLACEMENT_3D ( 'NONE', #169, #3, #2 ) ;
#171 = CIRCLE ( 'NONE', #170, 6.985000000000000300 ) ;
#172 = PERSON_AND_ORGANIZATION ( #26, #131 ) ;
#173 = COORDINATED_UNIVERSAL_TIME_OFFSET ( 5, 30, .AHEAD. ) ;
#174 = CC_DESIGN_DATE_AND_TIME_ASSIGNMENT ( #167, #164, ( #17 ) ) ;
#175 = CIRCLE ( 'NONE', #206, 6.349999999999999600 ) ;
#176 = CARTESIAN_POINT ( 'NONE',  ( 3.888125173386050200E-016, 7.776507174585692200E-016, -6.349999999999999600 ) ) ;
#177 =( GEOMETRIC_REPRESENTATION_CONTEXT ( 3 ) GLOBAL_UNCERTAINTY_ASSIGNED_CONTEXT ( ( #178 ) ) GLOBAL_UNIT_ASSIGNED_CONTEXT ( ( #200, #180, #179 ) ) REPRESENTATION_CONTEXT ( 'NONE', 'WORKASPACE' ) );
#178 = UNCERTAINTY_MEASURE_WITH_UNIT (LENGTH_MEASURE( 1.000000000000000100E-005 ), #200, 'distance_accuracy_value', 'NONE');
#179 =( NAMED_UNIT ( * ) SI_UNIT ( $, .STERADIAN. ) SOLID_ANGLE_UNIT ( ) );
#180 =( NAMED_UNIT ( * ) PLANE_ANGLE_UNIT ( ) SI_UNIT ( $, .RADIAN. ) );
#181 = CC_DESIGN_APPROVAL ( #203, ( #193 ) ) ;
#182 = APPROVAL_DATE_TIME ( #183, #203 ) ;
#183 = DATE_AND_TIME ( #184, #185 ) ;
#184 = CALENDAR_DATE ( 2013, 16, 1 ) ;
#185 = LOCAL_TIME ( 15, 32, 1.000000000000000000, #186 ) ;
#186 = COORDINATED_UNIVERSAL_TIME_OFFSET ( 5, 30, .AHEAD. ) ;
#187 = APPROVAL_PERSON_ORGANIZATION ( #194, #203, #188 ) ;
#188 = APPROVAL_ROLE ( '' ) ;
#189 = DIRECTION ( 'NONE',  ( -6.123031769111890000E-017, 0.0000000000000000000, 1.000000000000000000 ) ) ;
#190 = DIRECTION ( 'NONE',  ( -1.000000000000000000, 0.0000000000000000000, -6.123031769111890000E-017 ) ) ;
#191 = FACE_BOUND ( 'NONE', #71, .T. ) ;
#192 = AXIS2_PLACEMENT_3D ( 'NONE', #207, #190, #189 ) ;
#193 = PRODUCT_DEFINITION_FORMATION_WITH_SPECIFIED_SOURCE ( 'ANY', '', #27, .NOT_KNOWN. ) ;
#194 = PERSON_AND_ORGANIZATION ( #26, #131 ) ;
#195 = DIRECTION ( 'NONE',  ( 1.000000000000000000, 0.0000000000000000000, 0.0000000000000000000 ) ) ;
#196 = DIRECTION ( 'NONE',  ( 0.0000000000000000000, 0.0000000000000000000, 1.000000000000000000 ) ) ;
#197 = ADVANCED_BREP_SHAPE_REPRESENTATION ( 'B000FMWD7Q.3D', ( #99, #212 ), #177 ) ;
#198 = DIRECTION ( 'NONE',  ( 0.0000000000000000000, 0.0000000000000000000, 1.000000000000000000 ) ) ;
#199 = DIRECTION ( 'NONE',  ( -1.000000000000000000, 0.0000000000000000000, -6.123031769111890000E-017 ) ) ;
#200 =( LENGTH_UNIT ( ) NAMED_UNIT ( * ) SI_UNIT ( .MILLI., .METRE. ) );
#201 = DIRECTION ( 'NONE',  ( -1.000000000000000000, 0.0000000000000000000, -6.123031769111890000E-017 ) ) ;
#202 = VECTOR ( 'NONE', #201, 1000.000000000000000 ) ;
#203 = APPROVAL ( #204, 'UNSPECIFIED' ) ;
#204 = APPROVAL_STATUS ( 'not_yet_approved' ) ;
#205 = CARTESIAN_POINT ( 'NONE',  ( 0.0000000000000000000, 0.0000000000000000000, 0.0000000000000000000 ) ) ;
#206 = AXIS2_PLACEMENT_3D ( 'NONE', #217, #199, #198 ) ;
#207 = CARTESIAN_POINT ( 'NONE',  ( 2.527281362700929800E-016, 0.0000000000000000000, -4.127500000000000400 ) ) ;
#208 = CARTESIAN_POINT ( 'NONE',  ( 3.809999999999999600, 0.0000000000000000000, 6.349999999999999600 ) ) ;
#209 = LINE ( 'NONE', #208, #202 ) ;
#210 = PLANE ( 'NONE',  #192 ) ;
#211 = FACE_OUTER_BOUND ( 'NONE', #68, .T. ) ;
#212 = AXIS2_PLACEMENT_3D ( 'NONE', #205, #196, #195 ) ;
#213 = DIRECTION ( 'NONE',  ( -1.000000000000000000, 0.0000000000000000000, -6.123031769111890000E-017 ) ) ;
#214 = VECTOR ( 'NONE', #213, 1000.000000000000000 ) ;
#215 = CARTESIAN_POINT ( 'NONE',  ( 3.810000000000000500, 7.776507174585692200E-016, -6.349999999999999600 ) ) ;
#216 = LINE ( 'NONE', #215, #214 ) ;
#217 = CARTESIAN_POINT ( 'NONE',  ( 7.620000000000000100, 0.0000000000000000000, 4.665750208063260800E-016 ) ) ;
#218 = SHAPE_DEFINITION_REPRESENTATION ( #240, #197 ) ;
#219 = PRODUCT_RELATED_PRODUCT_CATEGORY ( 'detail', '', ( #27 ) ) ;
#220 = CC_DESIGN_PERSON_AND_ORGANIZATION_ASSIGNMENT ( #246, #229, ( #193 ) ) ;
#221 = CC_DESIGN_PERSON_AND_ORGANIZATION_ASSIGNMENT ( #231, #230, ( #193 ) ) ;
#222 = CALENDAR_DATE ( 2013, 16, 1 ) ;
#223 = LOCAL_TIME ( 15, 32, 1.000000000000000000, #232 ) ;
#224 = CC_DESIGN_SECURITY_CLASSIFICATION ( #227, ( #193 ) ) ;
#225 = CC_DESIGN_APPROVAL ( #249, ( #227 ) ) ;
#226 = PERSON_AND_ORGANIZATION ( #26, #131 ) ;
#227 = SECURITY_CLASSIFICATION ( '', '', #228 ) ;
#228 = SECURITY_CLASSIFICATION_LEVEL ( 'unclassified' ) ;
#229 = PERSON_AND_ORGANIZATION_ROLE ( 'creator' ) ;
#230 = PERSON_AND_ORGANIZATION_ROLE ( 'design_supplier' ) ;
#231 = PERSON_AND_ORGANIZATION ( #26, #131 ) ;
#232 = COORDINATED_UNIVERSAL_TIME_OFFSET ( 5, 30, .AHEAD. ) ;
#233 = CC_DESIGN_PERSON_AND_ORGANIZATION_ASSIGNMENT ( #226, #234, ( #227 ) ) ;
#234 = PERSON_AND_ORGANIZATION_ROLE ( 'classification_officer' ) ;
#235 = DATE_AND_TIME ( #236, #237 ) ;
#236 = CALENDAR_DATE ( 2013, 16, 1 ) ;
#237 = LOCAL_TIME ( 15, 32, 1.000000000000000000, #238 ) ;
#238 = COORDINATED_UNIVERSAL_TIME_OFFSET ( 5, 30, .AHEAD. ) ;
#239 = APPROVAL_PERSON_ORGANIZATION ( #242, #249, #248 ) ;
#240 = PRODUCT_DEFINITION_SHAPE ( 'NONE', 'NONE',  #17 ) ;
#241 = APPROVAL_STATUS ( 'not_yet_approved' ) ;
#242 = PERSON_AND_ORGANIZATION ( #26, #131 ) ;
#243 = CC_DESIGN_DATE_AND_TIME_ASSIGNMENT ( #245, #244, ( #227 ) ) ;
#244 = DATE_TIME_ROLE ( 'classification_date' ) ;
#245 = DATE_AND_TIME ( #222, #223 ) ;
#246 = PERSON_AND_ORGANIZATION ( #26, #131 ) ;
#247 = APPROVAL_DATE_TIME ( #235, #249 ) ;
#248 = APPROVAL_ROLE ( '' ) ;
#249 = APPROVAL ( #241, 'UNSPECIFIED' ) ;
ENDSEC;
END-ISO-10303-21;
