ISO-10303-21;
HEADER;
FILE_DESCRIPTION (( 'STEP AP203' ),
    '1' );
FILE_NAME ('B009YKX82Y.3D.STEP',
    '2013-11-21T07:58:42',
    ( '' ),
    ( '' ),
    'SwSTEP 2.0',
    'SolidWorks 2010',
    '' );
FILE_SCHEMA (( 'CONFIG_CONTROL_DESIGN' ));
ENDSEC;

DATA;
#1 = DIRECTION ( 'NONE',  ( 0.0000000000000000000, 0.0000000000000000000, 1.000000000000000000 ) ) ;
#2 = CARTESIAN_POINT ( 'NONE',  ( 0.0000000000000000000, 0.0000000000000000000, 0.3750000000000000600 ) ) ;
#3 = DIRECTION ( 'NONE',  ( 1.000000000000000000, 0.0000000000000000000, 0.0000000000000000000 ) ) ;
#4 = AXIS2_PLACEMENT_3D ( 'NONE', #2, #1, #3 ) ;
#5 = AXIS2_PLACEMENT_3D ( 'NONE', #8, #7, #6 ) ;
#6 = DIRECTION ( 'NONE',  ( -1.000000000000000000, 0.0000000000000000000, 0.0000000000000000000 ) ) ;
#7 = DIRECTION ( 'NONE',  ( 0.0000000000000000000, 0.0000000000000000000, -1.000000000000000000 ) ) ;
#8 = CARTESIAN_POINT ( 'NONE',  ( 0.0000000000000000000, 0.0000000000000000000, 0.3750000000000000600 ) ) ;
#9 = CYLINDRICAL_SURFACE ( 'NONE', #5, 0.1250000000000000000 ) ;
#10 = PLANE ( 'NONE',  #4 ) ;
#11 = FACE_BOUND ( 'NONE', #57, .T. ) ;
#12 = EDGE_CURVE ( 'NONE', #35, #36, #41, .T. ) ;
#13 = VERTEX_POINT ( 'NONE', #78 ) ;
#14 = ORIENTED_EDGE ( 'NONE', *, *, #31, .F. ) ;
#15 = ORIENTED_EDGE ( 'NONE', *, *, #32, .T. ) ;
#16 = EDGE_LOOP ( 'NONE', ( #14, #29, #47, #72 ) ) ;
#17 = ADVANCED_FACE ( 'NONE', ( #74 ), #9, .T. ) ;
#18 = VERTEX_POINT ( 'NONE', #92 ) ;
#19 = VERTEX_POINT ( 'NONE', #95 ) ;
#20 = EDGE_LOOP ( 'NONE', ( #52, #56, #55, #65 ) ) ;
#21 = ORIENTED_EDGE ( 'NONE', *, *, #50, .T. ) ;
#22 = EDGE_CURVE ( 'NONE', #18, #37, #81, .T. ) ;
#23 = ADVANCED_FACE ( 'NONE', ( #96, #91 ), #10, .T. ) ;
#24 = ORIENTED_EDGE ( 'NONE', *, *, #32, .F. ) ;
#25 = ADVANCED_FACE ( 'NONE', ( #45, #11 ), #87, .F. ) ;
#26 = ORIENTED_EDGE ( 'NONE', *, *, #22, .T. ) ;
#27 = ORIENTED_EDGE ( 'NONE', *, *, #69, .F. ) ;
#28 = EDGE_LOOP ( 'NONE', ( #24, #27 ) ) ;
#29 = ORIENTED_EDGE ( 'NONE', *, *, #30, .T. ) ;
#30 = EDGE_CURVE ( 'NONE', #37, #19, #83, .T. ) ;
#31 = EDGE_CURVE ( 'NONE', #37, #18, #175, .T. ) ;
#32 = EDGE_CURVE ( 'NONE', #34, #35, #145, .T. ) ;
#33 = EDGE_LOOP ( 'NONE', ( #15, #49, #38, #40 ) ) ;
#34 = VERTEX_POINT ( 'NONE', #126 ) ;
#35 = VERTEX_POINT ( 'NONE', #168 ) ;
#36 = VERTEX_POINT ( 'NONE', #151 ) ;
#37 = VERTEX_POINT ( 'NONE', #150 ) ;
#38 = ORIENTED_EDGE ( 'NONE', *, *, #50, .F. ) ;
#39 = ADVANCED_FACE ( 'NONE', ( #147 ), #153, .F. ) ;
#40 = ORIENTED_EDGE ( 'NONE', *, *, #51, .F. ) ;
#41 = LINE ( 'NONE', #77, #76 ) ;
#42 = CLOSED_SHELL ( 'NONE', ( #39, #17, #23, #25, #66, #61 ) ) ;
#43 = ORIENTED_EDGE ( 'NONE', *, *, #48, .F. ) ;
#44 = EDGE_CURVE ( 'NONE', #19, #73, #164, .T. ) ;
#45 = FACE_OUTER_BOUND ( 'NONE', #68, .T. ) ;
#46 = EDGE_CURVE ( 'NONE', #18, #73, #163, .T. ) ;
#47 = ORIENTED_EDGE ( 'NONE', *, *, #44, .T. ) ;
#48 = EDGE_CURVE ( 'NONE', #73, #19, #124, .T. ) ;
#49 = ORIENTED_EDGE ( 'NONE', *, *, #12, .T. ) ;
#50 = EDGE_CURVE ( 'NONE', #13, #36, #114, .T. ) ;
#51 = EDGE_CURVE ( 'NONE', #34, #13, #115, .T. ) ;
#52 = ORIENTED_EDGE ( 'NONE', *, *, #30, .F. ) ;
#53 = ORIENTED_EDGE ( 'NONE', *, *, #12, .F. ) ;
#54 = ORIENTED_EDGE ( 'NONE', *, *, #69, .T. ) ;
#55 = ORIENTED_EDGE ( 'NONE', *, *, #46, .T. ) ;
#56 = ORIENTED_EDGE ( 'NONE', *, *, #22, .F. ) ;
#57 = EDGE_LOOP ( 'NONE', ( #21, #64 ) ) ;
#58 = ORIENTED_EDGE ( 'NONE', *, *, #44, .F. ) ;
#59 = EDGE_CURVE ( 'NONE', #36, #13, #106, .T. ) ;
#60 = ORIENTED_EDGE ( 'NONE', *, *, #59, .F. ) ;
#61 = ADVANCED_FACE ( 'NONE', ( #121 ), #104, .F. ) ;
#62 = EDGE_LOOP ( 'NONE', ( #53, #54, #63, #60 ) ) ;
#63 = ORIENTED_EDGE ( 'NONE', *, *, #51, .T. ) ;
#64 = ORIENTED_EDGE ( 'NONE', *, *, #59, .T. ) ;
#65 = ORIENTED_EDGE ( 'NONE', *, *, #48, .T. ) ;
#66 = ADVANCED_FACE ( 'NONE', ( #101 ), #161, .T. ) ;
#67 = ORIENTED_EDGE ( 'NONE', *, *, #31, .T. ) ;
#68 = EDGE_LOOP ( 'NONE', ( #43, #58 ) ) ;
#69 = EDGE_CURVE ( 'NONE', #35, #34, #105, .T. ) ;
#70 = EDGE_LOOP ( 'NONE', ( #26, #67 ) ) ;
#71 = MANIFOLD_SOLID_BREP ( 'Imported1', #42 ) ;
#72 = ORIENTED_EDGE ( 'NONE', *, *, #46, .F. ) ;
#73 = VERTEX_POINT ( 'NONE', #100 ) ;
#74 = FACE_OUTER_BOUND ( 'NONE', #16, .T. ) ;
#75 = DIRECTION ( 'NONE',  ( 0.0000000000000000000, 0.0000000000000000000, -1.000000000000000000 ) ) ;
#76 = VECTOR ( 'NONE', #75, 39.37007874015748100 ) ;
#77 = CARTESIAN_POINT ( 'NONE',  ( 0.08300000000000000400, 1.016456843292303200E-017, 0.3750000000000000600 ) ) ;
#78 = CARTESIAN_POINT ( 'NONE',  ( -0.08300000000000000400, 0.0000000000000000000, 0.0000000000000000000 ) ) ;
#79 = AXIS2_PLACEMENT_3D ( 'NONE', #94, #93, #86 ) ;
#80 = AXIS2_PLACEMENT_3D ( 'NONE', #85, #84, #89 ) ;
#81 = CIRCLE ( 'NONE', #80, 0.1250000000000000000 ) ;
#82 = CARTESIAN_POINT ( 'NONE',  ( 0.1250000000000000000, 1.530808498934191500E-017, 0.3750000000000000600 ) ) ;
#83 = LINE ( 'NONE', #82, #90 ) ;
#84 = DIRECTION ( 'NONE',  ( 0.0000000000000000000, 0.0000000000000000000, 1.000000000000000000 ) ) ;
#85 = CARTESIAN_POINT ( 'NONE',  ( 0.0000000000000000000, 0.0000000000000000000, 0.3750000000000000600 ) ) ;
#86 = DIRECTION ( 'NONE',  ( 1.000000000000000000, 0.0000000000000000000, 0.0000000000000000000 ) ) ;
#87 = PLANE ( 'NONE',  #79 ) ;
#88 = DIRECTION ( 'NONE',  ( 0.0000000000000000000, 0.0000000000000000000, -1.000000000000000000 ) ) ;
#89 = DIRECTION ( 'NONE',  ( 1.000000000000000000, 0.0000000000000000000, 0.0000000000000000000 ) ) ;
#90 = VECTOR ( 'NONE', #88, 39.37007874015748100 ) ;
#91 = FACE_BOUND ( 'NONE', #28, .T. ) ;
#92 = CARTESIAN_POINT ( 'NONE',  ( -0.1250000000000000000, 0.0000000000000000000, 0.3750000000000000600 ) ) ;
#93 = DIRECTION ( 'NONE',  ( 0.0000000000000000000, 0.0000000000000000000, 1.000000000000000000 ) ) ;
#94 = CARTESIAN_POINT ( 'NONE',  ( 0.0000000000000000000, 0.0000000000000000000, 0.0000000000000000000 ) ) ;
#95 = CARTESIAN_POINT ( 'NONE',  ( 0.1250000000000000000, 1.530808498934191500E-017, 0.0000000000000000000 ) ) ;
#96 = FACE_OUTER_BOUND ( 'NONE', #70, .T. ) ;
#97 = DIRECTION ( 'NONE',  ( 0.0000000000000000000, 0.0000000000000000000, -1.000000000000000000 ) ) ;
#98 = CARTESIAN_POINT ( 'NONE',  ( 0.0000000000000000000, 0.0000000000000000000, 0.3750000000000000600 ) ) ;
#99 = DIRECTION ( 'NONE',  ( -1.000000000000000000, 0.0000000000000000000, 0.0000000000000000000 ) ) ;
#100 = CARTESIAN_POINT ( 'NONE',  ( -0.1250000000000000000, 0.0000000000000000000, 0.0000000000000000000 ) ) ;
#101 = FACE_OUTER_BOUND ( 'NONE', #20, .T. ) ;
#102 = CARTESIAN_POINT ( 'NONE',  ( 0.0000000000000000000, 0.0000000000000000000, 0.3750000000000000600 ) ) ;
#103 = AXIS2_PLACEMENT_3D ( 'NONE', #102, #107, #99 ) ;
#104 = CYLINDRICAL_SURFACE ( 'NONE', #103, 0.08300000000000000400 ) ;
#105 = CIRCLE ( 'NONE', #138, 0.08300000000000000400 ) ;
#106 = CIRCLE ( 'NONE', #120, 0.08300000000000000400 ) ;
#107 = DIRECTION ( 'NONE',  ( 0.0000000000000000000, 0.0000000000000000000, -1.000000000000000000 ) ) ;
#108 = DIRECTION ( 'NONE',  ( 0.0000000000000000000, 0.0000000000000000000, -1.000000000000000000 ) ) ;
#109 = VECTOR ( 'NONE', #108, 39.37007874015748100 ) ;
#110 = DIRECTION ( 'NONE',  ( 0.0000000000000000000, 0.0000000000000000000, 1.000000000000000000 ) ) ;
#111 = DIRECTION ( 'NONE',  ( 1.000000000000000000, 0.0000000000000000000, 0.0000000000000000000 ) ) ;
#112 = DIRECTION ( 'NONE',  ( 0.0000000000000000000, 0.0000000000000000000, 1.000000000000000000 ) ) ;
#113 = AXIS2_PLACEMENT_3D ( 'NONE', #122, #112, #111 ) ;
#114 = CIRCLE ( 'NONE', #113, 0.08300000000000000400 ) ;
#115 = LINE ( 'NONE', #165, #109 ) ;
#116 = DIRECTION ( 'NONE',  ( 1.000000000000000000, 0.0000000000000000000, 0.0000000000000000000 ) ) ;
#117 = AXIS2_PLACEMENT_3D ( 'NONE', #98, #97, #140 ) ;
#118 = DIRECTION ( 'NONE',  ( 1.000000000000000000, 0.0000000000000000000, 0.0000000000000000000 ) ) ;
#119 = DIRECTION ( 'NONE',  ( 0.0000000000000000000, 0.0000000000000000000, 1.000000000000000000 ) ) ;
#120 = AXIS2_PLACEMENT_3D ( 'NONE', #123, #110, #116 ) ;
#121 = FACE_OUTER_BOUND ( 'NONE', #62, .T. ) ;
#122 = CARTESIAN_POINT ( 'NONE',  ( 0.0000000000000000000, 0.0000000000000000000, 0.0000000000000000000 ) ) ;
#123 = CARTESIAN_POINT ( 'NONE',  ( 0.0000000000000000000, 0.0000000000000000000, 0.0000000000000000000 ) ) ;
#124 = CIRCLE ( 'NONE', #162, 0.1250000000000000000 ) ;
#125 = CARTESIAN_POINT ( 'NONE',  ( 0.0000000000000000000, 0.0000000000000000000, 0.3750000000000000600 ) ) ;
#126 = CARTESIAN_POINT ( 'NONE',  ( -0.08300000000000000400, 0.0000000000000000000, 0.3750000000000000600 ) ) ;
#127 = ADVANCED_BREP_SHAPE_REPRESENTATION ( 'B009YKX82Y.3D', ( #71, #139 ), #128 ) ;
#128 =( GEOMETRIC_REPRESENTATION_CONTEXT ( 3 ) GLOBAL_UNCERTAINTY_ASSIGNED_CONTEXT ( ( #129 ) ) GLOBAL_UNIT_ASSIGNED_CONTEXT ( ( #132, #131, #130 ) ) REPRESENTATION_CONTEXT ( 'NONE', 'WORKASPACE' ) );
#129 = UNCERTAINTY_MEASURE_WITH_UNIT (LENGTH_MEASURE( 1.000000000000000100E-005 ), #132, 'distance_accuracy_value', 'NONE');
#130 =( NAMED_UNIT ( * ) SI_UNIT ( $, .STERADIAN. ) SOLID_ANGLE_UNIT ( ) );
#131 =( NAMED_UNIT ( * ) PLANE_ANGLE_UNIT ( ) SI_UNIT ( $, .RADIAN. ) );
#132 =( CONVERSION_BASED_UNIT ( 'INCH', #133 ) LENGTH_UNIT ( ) NAMED_UNIT ( #134 ) );
#133 = LENGTH_MEASURE_WITH_UNIT ( LENGTH_MEASURE( 0.02539999999999999900 ), #135 );
#134 = DIMENSIONAL_EXPONENTS ( 1.000000000000000000, 0.0000000000000000000, 0.0000000000000000000, 0.0000000000000000000, 0.0000000000000000000, 0.0000000000000000000, 0.0000000000000000000 ) ;
#135 =( LENGTH_UNIT ( ) NAMED_UNIT ( * ) SI_UNIT ( $, .METRE. ) );
#136 = DIRECTION ( 'NONE',  ( 1.000000000000000000, 0.0000000000000000000, 0.0000000000000000000 ) ) ;
#137 = DIRECTION ( 'NONE',  ( 0.0000000000000000000, 0.0000000000000000000, 1.000000000000000000 ) ) ;
#138 = AXIS2_PLACEMENT_3D ( 'NONE', #141, #137, #136 ) ;
#139 = AXIS2_PLACEMENT_3D ( 'NONE', #144, #143, #142 ) ;
#140 = DIRECTION ( 'NONE',  ( -1.000000000000000000, 0.0000000000000000000, 0.0000000000000000000 ) ) ;
#141 = CARTESIAN_POINT ( 'NONE',  ( 0.0000000000000000000, 0.0000000000000000000, 0.3750000000000000600 ) ) ;
#142 = DIRECTION ( 'NONE',  ( 1.000000000000000000, 0.0000000000000000000, 0.0000000000000000000 ) ) ;
#143 = DIRECTION ( 'NONE',  ( 0.0000000000000000000, 0.0000000000000000000, 1.000000000000000000 ) ) ;
#144 = CARTESIAN_POINT ( 'NONE',  ( 0.0000000000000000000, 0.0000000000000000000, 0.0000000000000000000 ) ) ;
#145 = CIRCLE ( 'NONE', #152, 0.08300000000000000400 ) ;
#146 = CARTESIAN_POINT ( 'NONE',  ( 0.0000000000000000000, 0.0000000000000000000, 0.3750000000000000600 ) ) ;
#147 = FACE_OUTER_BOUND ( 'NONE', #33, .T. ) ;
#148 = DIRECTION ( 'NONE',  ( 1.000000000000000000, 0.0000000000000000000, 0.0000000000000000000 ) ) ;
#149 = DIRECTION ( 'NONE',  ( 0.0000000000000000000, 0.0000000000000000000, 1.000000000000000000 ) ) ;
#150 = CARTESIAN_POINT ( 'NONE',  ( 0.1250000000000000000, 1.530808498934191500E-017, 0.3750000000000000600 ) ) ;
#151 = CARTESIAN_POINT ( 'NONE',  ( 0.08300000000000000400, 1.016456843292303200E-017, 0.0000000000000000000 ) ) ;
#152 = AXIS2_PLACEMENT_3D ( 'NONE', #172, #171, #170 ) ;
#153 = CYLINDRICAL_SURFACE ( 'NONE', #154, 0.08300000000000000400 ) ;
#154 = AXIS2_PLACEMENT_3D ( 'NONE', #146, #167, #166 ) ;
#155 = CARTESIAN_POINT ( 'NONE',  ( 0.0000000000000000000, 0.0000000000000000000, 0.0000000000000000000 ) ) ;
#156 = DIRECTION ( 'NONE',  ( 1.000000000000000000, 0.0000000000000000000, 0.0000000000000000000 ) ) ;
#157 = DIRECTION ( 'NONE',  ( 0.0000000000000000000, 0.0000000000000000000, 1.000000000000000000 ) ) ;
#158 = DIRECTION ( 'NONE',  ( 0.0000000000000000000, 0.0000000000000000000, -1.000000000000000000 ) ) ;
#159 = VECTOR ( 'NONE', #158, 39.37007874015748100 ) ;
#160 = CARTESIAN_POINT ( 'NONE',  ( -0.1250000000000000000, 0.0000000000000000000, 0.3750000000000000600 ) ) ;
#161 = CYLINDRICAL_SURFACE ( 'NONE', #117, 0.1250000000000000000 ) ;
#162 = AXIS2_PLACEMENT_3D ( 'NONE', #155, #119, #118 ) ;
#163 = LINE ( 'NONE', #160, #159 ) ;
#164 = CIRCLE ( 'NONE', #173, 0.1250000000000000000 ) ;
#165 = CARTESIAN_POINT ( 'NONE',  ( -0.08300000000000000400, 0.0000000000000000000, 0.3750000000000000600 ) ) ;
#166 = DIRECTION ( 'NONE',  ( -1.000000000000000000, 0.0000000000000000000, 0.0000000000000000000 ) ) ;
#167 = DIRECTION ( 'NONE',  ( 0.0000000000000000000, 0.0000000000000000000, -1.000000000000000000 ) ) ;
#168 = CARTESIAN_POINT ( 'NONE',  ( 0.08300000000000000400, 1.016456843292303200E-017, 0.3750000000000000600 ) ) ;
#169 = CARTESIAN_POINT ( 'NONE',  ( 0.0000000000000000000, 0.0000000000000000000, 0.0000000000000000000 ) ) ;
#170 = DIRECTION ( 'NONE',  ( 1.000000000000000000, 0.0000000000000000000, 0.0000000000000000000 ) ) ;
#171 = DIRECTION ( 'NONE',  ( 0.0000000000000000000, 0.0000000000000000000, 1.000000000000000000 ) ) ;
#172 = CARTESIAN_POINT ( 'NONE',  ( 0.0000000000000000000, 0.0000000000000000000, 0.3750000000000000600 ) ) ;
#173 = AXIS2_PLACEMENT_3D ( 'NONE', #169, #157, #156 ) ;
#174 = AXIS2_PLACEMENT_3D ( 'NONE', #125, #149, #148 ) ;
#175 = CIRCLE ( 'NONE', #174, 0.1250000000000000000 ) ;
#176 = COORDINATED_UNIVERSAL_TIME_OFFSET ( 5, 30, .AHEAD. ) ;
#177 = APPROVAL_PERSON_ORGANIZATION ( #181, #179, #178 ) ;
#178 = APPROVAL_ROLE ( '' ) ;
#179 = APPROVAL ( #180, 'UNSPECIFIED' ) ;
#180 = APPROVAL_STATUS ( 'not_yet_approved' ) ;
#181 = PERSON_AND_ORGANIZATION ( #215, #217 ) ;
#182 = PRODUCT_DEFINITION ( 'UNKNOWN', '', #209, #183 ) ;
#183 = DESIGN_CONTEXT ( 'detailed design', #185, 'design' ) ;
#184 = APPLICATION_PROTOCOL_DEFINITION ( 'international standard', 'config_control_design', 1994, #185 ) ;
#185 = APPLICATION_CONTEXT ( 'configuration controlled 3d designs of mechanical parts and assemblies' ) ;
#186 = COORDINATED_UNIVERSAL_TIME_OFFSET ( 5, 30, .AHEAD. ) ;
#187 = CC_DESIGN_PERSON_AND_ORGANIZATION_ASSIGNMENT ( #189, #188, ( #190 ) ) ;
#188 = PERSON_AND_ORGANIZATION_ROLE ( 'classification_officer' ) ;
#189 = PERSON_AND_ORGANIZATION ( #215, #217 ) ;
#190 = SECURITY_CLASSIFICATION ( '', '', #191 ) ;
#191 = SECURITY_CLASSIFICATION_LEVEL ( 'unclassified' ) ;
#192 = CC_DESIGN_PERSON_AND_ORGANIZATION_ASSIGNMENT ( #194, #193, ( #209 ) ) ;
#193 = PERSON_AND_ORGANIZATION_ROLE ( 'design_supplier' ) ;
#194 = PERSON_AND_ORGANIZATION ( #215, #217 ) ;
#195 = CC_DESIGN_PERSON_AND_ORGANIZATION_ASSIGNMENT ( #197, #196, ( #209 ) ) ;
#196 = PERSON_AND_ORGANIZATION_ROLE ( 'creator' ) ;
#197 = PERSON_AND_ORGANIZATION ( #215, #217 ) ;
#198 = CC_DESIGN_APPROVAL ( #206, ( #209 ) ) ;
#199 = APPROVAL_DATE_TIME ( #200, #206 ) ;
#200 = DATE_AND_TIME ( #201, #202 ) ;
#201 = CALENDAR_DATE ( 2013, 21, 11 ) ;
#202 = LOCAL_TIME ( 13, 28, 42.00000000000000000, #203 ) ;
#203 = COORDINATED_UNIVERSAL_TIME_OFFSET ( 5, 30, .AHEAD. ) ;
#204 = APPROVAL_PERSON_ORGANIZATION ( #208, #206, #205 ) ;
#205 = APPROVAL_ROLE ( '' ) ;
#206 = APPROVAL ( #207, 'UNSPECIFIED' ) ;
#207 = APPROVAL_STATUS ( 'not_yet_approved' ) ;
#208 = PERSON_AND_ORGANIZATION ( #215, #217 ) ;
#209 = PRODUCT_DEFINITION_FORMATION_WITH_SPECIFIED_SOURCE ( 'ANY', '', #241, .NOT_KNOWN. ) ;
#210 = CC_DESIGN_DATE_AND_TIME_ASSIGNMENT ( #232, #211, ( #182 ) ) ;
#211 = DATE_TIME_ROLE ( 'creation_date' ) ;
#212 = CALENDAR_DATE ( 2013, 21, 11 ) ;
#213 = LOCAL_TIME ( 13, 28, 42.00000000000000000, #214 ) ;
#214 = COORDINATED_UNIVERSAL_TIME_OFFSET ( 5, 30, .AHEAD. ) ;
#215 = PERSON ( 'UNSPECIFIED', 'UNSPECIFIED', 'UNSPECIFIED', ('UNSPECIFIED'), ('UNSPECIFIED'), ('UNSPECIFIED') ) ;
#216 = PERSON_AND_ORGANIZATION ( #215, #217 ) ;
#217 = ORGANIZATION ( 'UNSPECIFIED', 'UNSPECIFIED', '' ) ;
#218 = CALENDAR_DATE ( 2013, 21, 11 ) ;
#219 = LOCAL_TIME ( 13, 28, 42.00000000000000000, #220 ) ;
#220 = COORDINATED_UNIVERSAL_TIME_OFFSET ( 5, 30, .AHEAD. ) ;
#221 = APPROVAL_PERSON_ORGANIZATION ( #225, #223, #222 ) ;
#222 = APPROVAL_ROLE ( '' ) ;
#223 = APPROVAL ( #224, 'UNSPECIFIED' ) ;
#224 = APPROVAL_STATUS ( 'not_yet_approved' ) ;
#225 = PERSON_AND_ORGANIZATION ( #215, #217 ) ;
#226 = CC_DESIGN_DATE_AND_TIME_ASSIGNMENT ( #228, #227, ( #190 ) ) ;
#227 = DATE_TIME_ROLE ( 'classification_date' ) ;
#228 = DATE_AND_TIME ( #229, #230 ) ;
#229 = CALENDAR_DATE ( 2013, 21, 11 ) ;
#230 = LOCAL_TIME ( 13, 28, 42.00000000000000000, #186 ) ;
#231 = APPLICATION_CONTEXT ( 'configuration controlled 3d designs of mechanical parts and assemblies' ) ;
#232 = DATE_AND_TIME ( #212, #213 ) ;
#233 = CC_DESIGN_PERSON_AND_ORGANIZATION_ASSIGNMENT ( #235, #234, ( #182 ) ) ;
#234 = PERSON_AND_ORGANIZATION_ROLE ( 'creator' ) ;
#235 = PERSON_AND_ORGANIZATION ( #215, #217 ) ;
#236 = CC_DESIGN_APPROVAL ( #179, ( #182 ) ) ;
#237 = APPROVAL_DATE_TIME ( #238, #179 ) ;
#238 = DATE_AND_TIME ( #239, #240 ) ;
#239 = CALENDAR_DATE ( 2013, 21, 11 ) ;
#240 = LOCAL_TIME ( 13, 28, 42.00000000000000000, #176 ) ;
#241 = PRODUCT ( 'B009YKX82Y.3D', 'B009YKX82Y.3D', '', ( #242 ) ) ;
#242 = MECHANICAL_CONTEXT ( 'NONE', #231, 'mechanical' ) ;
#243 = APPLICATION_PROTOCOL_DEFINITION ( 'international standard', 'config_control_design', 1994, #231 ) ;
#244 = SHAPE_DEFINITION_REPRESENTATION ( #247, #127 ) ;
#245 = CC_DESIGN_PERSON_AND_ORGANIZATION_ASSIGNMENT ( #216, #246, ( #241 ) ) ;
#246 = PERSON_AND_ORGANIZATION_ROLE ( 'design_owner' ) ;
#247 = PRODUCT_DEFINITION_SHAPE ( 'NONE', 'NONE',  #182 ) ;
#248 = PRODUCT_RELATED_PRODUCT_CATEGORY ( 'detail', '', ( #241 ) ) ;
#249 = CC_DESIGN_SECURITY_CLASSIFICATION ( #190, ( #209 ) ) ;
#250 = CC_DESIGN_APPROVAL ( #223, ( #190 ) ) ;
#251 = APPROVAL_DATE_TIME ( #252, #223 ) ;
#252 = DATE_AND_TIME ( #218, #219 ) ;
ENDSEC;
END-ISO-10303-21;
