ISO-10303-21;
HEADER;
FILE_DESCRIPTION (( 'STEP AP203' ),
    '1' );
FILE_NAME ('B004K1FC30.3D.STEP',
    '2013-11-18T07:26:32',
    ( '' ),
    ( '' ),
    'SwSTEP 2.0',
    'SolidWorks 2010',
    '' );
FILE_SCHEMA (( 'CONFIG_CONTROL_DESIGN' ));
ENDSEC;

DATA;
#1 = PRODUCT ( 'B004K1FC30.3D', 'B004K1FC30.3D', '', ( #2 ) ) ;
#2 = MECHANICAL_CONTEXT ( 'NONE', #4, 'mechanical' ) ;
#3 = APPLICATION_PROTOCOL_DEFINITION ( 'international standard', 'config_control_design', 1994, #4 ) ;
#4 = APPLICATION_CONTEXT ( 'configuration controlled 3d designs of mechanical parts and assemblies' ) ;
#5 = PERSON ( 'UNSPECIFIED', 'UNSPECIFIED', 'UNSPECIFIED', ('UNSPECIFIED'), ('UNSPECIFIED'), ('UNSPECIFIED') ) ;
#6 = APPROVAL_ROLE ( '' ) ;
#7 = APPROVAL ( #8, 'UNSPECIFIED' ) ;
#8 = APPROVAL_STATUS ( 'not_yet_approved' ) ;
#9 = APPROVAL_PERSON_ORGANIZATION ( #120, #7, #6 ) ;
#10 = LOCAL_TIME ( 12, 56, 32.00000000000000000, #11 ) ;
#11 = COORDINATED_UNIVERSAL_TIME_OFFSET ( 5, 30, .AHEAD. ) ;
#12 = APPROVAL_DATE_TIME ( #13, #7 ) ;
#13 = DATE_AND_TIME ( #15, #10 ) ;
#14 = CC_DESIGN_APPROVAL ( #7, ( #121 ) ) ;
#15 = CALENDAR_DATE ( 2013, 18, 11 ) ;
#16 = EDGE_LOOP ( 'NONE', ( #48, #85 ) ) ;
#17 = EDGE_CURVE ( 'NONE', #23, #19, #87, .T. ) ;
#18 = VERTEX_POINT ( 'NONE', #89 ) ;
#19 = VERTEX_POINT ( 'NONE', #59 ) ;
#20 = VERTEX_POINT ( 'NONE', #58 ) ;
#21 = ORIENTED_EDGE ( 'NONE', *, *, #37, .F. ) ;
#22 = ADVANCED_FACE ( 'NONE', ( #88 ), #60, .T. ) ;
#23 = VERTEX_POINT ( 'NONE', #50 ) ;
#24 = EDGE_CURVE ( 'NONE', #30, #18, #101, .T. ) ;
#25 = EDGE_CURVE ( 'NONE', #30, #23, #53, .T. ) ;
#26 = EDGE_CURVE ( 'NONE', #27, #20, #176, .T. ) ;
#27 = VERTEX_POINT ( 'NONE', #180 ) ;
#28 = PERSON_AND_ORGANIZATION_ROLE ( 'design_owner' ) ;
#29 = VERTEX_POINT ( 'NONE', #179 ) ;
#30 = VERTEX_POINT ( 'NONE', #178 ) ;
#31 = ADVANCED_FACE ( 'NONE', ( #117 ), #184, .F. ) ;
#32 = ORIENTED_EDGE ( 'NONE', *, *, #34, .T. ) ;
#33 = ORIENTED_EDGE ( 'NONE', *, *, #26, .T. ) ;
#34 = EDGE_CURVE ( 'NONE', #20, #29, #183, .T. ) ;
#35 = ORIENTED_EDGE ( 'NONE', *, *, #25, .F. ) ;
#36 = VERTEX_POINT ( 'NONE', #216 ) ;
#37 = EDGE_CURVE ( 'NONE', #36, #29, #217, .T. ) ;
#38 = ORIENTED_EDGE ( 'NONE', *, *, #39, .F. ) ;
#39 = EDGE_CURVE ( 'NONE', #27, #36, #211, .T. ) ;
#40 = EDGE_LOOP ( 'NONE', ( #35, #79, #78, #80 ) ) ;
#41 = ORIENTED_EDGE ( 'NONE', *, *, #71, .T. ) ;
#42 = ORIENTED_EDGE ( 'NONE', *, *, #37, .T. ) ;
#43 = EDGE_CURVE ( 'NONE', #19, #18, #201, .T. ) ;
#44 = EDGE_CURVE ( 'NONE', #20, #27, #119, .T. ) ;
#45 = ORIENTED_EDGE ( 'NONE', *, *, #43, .F. ) ;
#46 = ADVANCED_FACE ( 'NONE', ( #212, #206 ), #208, .F. ) ;
#47 = EDGE_LOOP ( 'NONE', ( #84, #82 ) ) ;
#48 = ORIENTED_EDGE ( 'NONE', *, *, #51, .T. ) ;
#49 = AXIS2_PLACEMENT_3D ( 'NONE', #100, #99, #98 ) ;
#50 = CARTESIAN_POINT ( 'NONE',  ( 0.0000000000000000000, 1.600200000000000100, -7.937500000000000000 ) ) ;
#51 = EDGE_CURVE ( 'NONE', #23, #30, #185, .T. ) ;
#52 = EDGE_LOOP ( 'NONE', ( #42, #41 ) ) ;
#53 = CIRCLE ( 'NONE', #102, 7.937500000000000000 ) ;
#54 = ORGANIZATION ( 'UNSPECIFIED', 'UNSPECIFIED', '' ) ;
#55 = DIRECTION ( 'NONE',  ( 0.0000000000000000000, -1.000000000000000000, 0.0000000000000000000 ) ) ;
#56 = VECTOR ( 'NONE', #55, 1000.000000000000000 ) ;
#57 = CARTESIAN_POINT ( 'NONE',  ( 0.0000000000000000000, 1.600200000000000100, -7.937500000000000000 ) ) ;
#58 = CARTESIAN_POINT ( 'NONE',  ( 5.101388706528214000E-016, 1.600200000000000100, 4.165600000000000400 ) ) ;
#59 = CARTESIAN_POINT ( 'NONE',  ( 0.0000000000000000000, 0.0000000000000000000, -7.937500000000000000 ) ) ;
#60 = CYLINDRICAL_SURFACE ( 'NONE', #49, 7.937500000000000000 ) ;
#61 = ORIENTED_EDGE ( 'NONE', *, *, #71, .F. ) ;
#62 = ORIENTED_EDGE ( 'NONE', *, *, #34, .F. ) ;
#63 = ORIENTED_EDGE ( 'NONE', *, *, #43, .T. ) ;
#64 = ADVANCED_FACE ( 'NONE', ( #193 ), #198, .F. ) ;
#65 = ORIENTED_EDGE ( 'NONE', *, *, #39, .T. ) ;
#66 = ORIENTED_EDGE ( 'NONE', *, *, #17, .T. ) ;
#67 = PERSON_AND_ORGANIZATION ( #5, #54 ) ;
#68 = ORIENTED_EDGE ( 'NONE', *, *, #44, .T. ) ;
#69 = EDGE_LOOP ( 'NONE', ( #62, #68, #65, #61 ) ) ;
#70 = ORIENTED_EDGE ( 'NONE', *, *, #51, .F. ) ;
#71 = EDGE_CURVE ( 'NONE', #29, #36, #160, .T. ) ;
#72 = ORIENTED_EDGE ( 'NONE', *, *, #24, .F. ) ;
#73 = ADVANCED_FACE ( 'NONE', ( #171 ), #187, .T. ) ;
#74 = EDGE_LOOP ( 'NONE', ( #72, #70, #66, #63 ) ) ;
#75 = ADVANCED_FACE ( 'NONE', ( #155, #161 ), #156, .T. ) ;
#76 = EDGE_LOOP ( 'NONE', ( #33, #32, #21, #38 ) ) ;
#77 = EDGE_CURVE ( 'NONE', #18, #19, #151, .T. ) ;
#78 = ORIENTED_EDGE ( 'NONE', *, *, #77, .T. ) ;
#79 = ORIENTED_EDGE ( 'NONE', *, *, #24, .T. ) ;
#80 = ORIENTED_EDGE ( 'NONE', *, *, #17, .F. ) ;
#81 = EDGE_LOOP ( 'NONE', ( #45, #83 ) ) ;
#82 = ORIENTED_EDGE ( 'NONE', *, *, #44, .F. ) ;
#83 = ORIENTED_EDGE ( 'NONE', *, *, #77, .F. ) ;
#84 = ORIENTED_EDGE ( 'NONE', *, *, #26, .F. ) ;
#85 = ORIENTED_EDGE ( 'NONE', *, *, #25, .T. ) ;
#86 = CLOSED_SHELL ( 'NONE', ( #31, #22, #75, #46, #73, #64 ) ) ;
#87 = LINE ( 'NONE', #57, #56 ) ;
#88 = FACE_OUTER_BOUND ( 'NONE', #40, .T. ) ;
#89 = CARTESIAN_POINT ( 'NONE',  ( 9.720633968232116200E-016, 0.0000000000000000000, 7.937500000000000000 ) ) ;
#90 = MANIFOLD_SOLID_BREP ( 'Imported1', #86 ) ;
#91 = DIRECTION ( 'NONE',  ( 0.0000000000000000000, 0.0000000000000000000, 1.000000000000000000 ) ) ;
#92 = DIRECTION ( 'NONE',  ( 0.0000000000000000000, 1.000000000000000000, 0.0000000000000000000 ) ) ;
#93 = CC_DESIGN_PERSON_AND_ORGANIZATION_ASSIGNMENT ( #67, #28, ( #1 ) ) ;
#94 = DIRECTION ( 'NONE',  ( 0.0000000000000000000, -1.000000000000000000, 0.0000000000000000000 ) ) ;
#95 = VECTOR ( 'NONE', #94, 1000.000000000000000 ) ;
#96 = CARTESIAN_POINT ( 'NONE',  ( 9.720633968232116200E-016, 1.600200000000000100, 7.937500000000000000 ) ) ;
#97 = CARTESIAN_POINT ( 'NONE',  ( 0.0000000000000000000, 1.600200000000000100, 0.0000000000000000000 ) ) ;
#98 = DIRECTION ( 'NONE',  ( 0.0000000000000000000, 0.0000000000000000000, -1.000000000000000000 ) ) ;
#99 = DIRECTION ( 'NONE',  ( 0.0000000000000000000, -1.000000000000000000, 0.0000000000000000000 ) ) ;
#100 = CARTESIAN_POINT ( 'NONE',  ( 0.0000000000000000000, 1.600200000000000100, 0.0000000000000000000 ) ) ;
#101 = LINE ( 'NONE', #96, #95 ) ;
#102 = AXIS2_PLACEMENT_3D ( 'NONE', #97, #92, #91 ) ;
#103 = DIRECTION ( 'NONE',  ( 1.000000000000000000, 0.0000000000000000000, 0.0000000000000000000 ) ) ;
#104 = ADVANCED_BREP_SHAPE_REPRESENTATION ( 'B004K1FC30.3D', ( #90, #169 ), #105 ) ;
#105 =( GEOMETRIC_REPRESENTATION_CONTEXT ( 3 ) GLOBAL_UNCERTAINTY_ASSIGNED_CONTEXT ( ( #106 ) ) GLOBAL_UNIT_ASSIGNED_CONTEXT ( ( #109, #108, #107 ) ) REPRESENTATION_CONTEXT ( 'NONE', 'WORKASPACE' ) );
#106 = UNCERTAINTY_MEASURE_WITH_UNIT (LENGTH_MEASURE( 1.000000000000000100E-005 ), #109, 'distance_accuracy_value', 'NONE');
#107 =( NAMED_UNIT ( * ) SI_UNIT ( $, .STERADIAN. ) SOLID_ANGLE_UNIT ( ) );
#108 =( NAMED_UNIT ( * ) PLANE_ANGLE_UNIT ( ) SI_UNIT ( $, .RADIAN. ) );
#109 =( LENGTH_UNIT ( ) NAMED_UNIT ( * ) SI_UNIT ( .MILLI., .METRE. ) );
#110 = DIRECTION ( 'NONE',  ( 0.0000000000000000000, 0.0000000000000000000, 1.000000000000000000 ) ) ;
#111 = DIRECTION ( 'NONE',  ( 0.0000000000000000000, 1.000000000000000000, 0.0000000000000000000 ) ) ;
#112 = CARTESIAN_POINT ( 'NONE',  ( 0.0000000000000000000, 0.0000000000000000000, 0.0000000000000000000 ) ) ;
#113 = AXIS2_PLACEMENT_3D ( 'NONE', #112, #111, #110 ) ;
#114 = CARTESIAN_POINT ( 'NONE',  ( 0.0000000000000000000, 1.600200000000000100, 0.0000000000000000000 ) ) ;
#115 = DIRECTION ( 'NONE',  ( 0.0000000000000000000, 0.0000000000000000000, -1.000000000000000000 ) ) ;
#116 = DIRECTION ( 'NONE',  ( 0.0000000000000000000, -1.000000000000000000, 0.0000000000000000000 ) ) ;
#117 = FACE_OUTER_BOUND ( 'NONE', #76, .T. ) ;
#118 = CARTESIAN_POINT ( 'NONE',  ( 0.0000000000000000000, 0.0000000000000000000, 0.0000000000000000000 ) ) ;
#119 = CIRCLE ( 'NONE', #192, 4.165600000000000400 ) ;
#120 = PERSON_AND_ORGANIZATION ( #5, #54 ) ;
#121 = PRODUCT_DEFINITION_FORMATION_WITH_SPECIFIED_SOURCE ( 'ANY', '', #1, .NOT_KNOWN. ) ;
#122 = CC_DESIGN_DATE_AND_TIME_ASSIGNMENT ( #124, #123, ( #144 ) ) ;
#123 = DATE_TIME_ROLE ( 'creation_date' ) ;
#124 = DATE_AND_TIME ( #125, #126 ) ;
#125 = CALENDAR_DATE ( 2013, 18, 11 ) ;
#126 = LOCAL_TIME ( 12, 56, 32.00000000000000000, #127 ) ;
#127 = COORDINATED_UNIVERSAL_TIME_OFFSET ( 5, 30, .AHEAD. ) ;
#128 = CC_DESIGN_PERSON_AND_ORGANIZATION_ASSIGNMENT ( #130, #129, ( #144 ) ) ;
#129 = PERSON_AND_ORGANIZATION_ROLE ( 'creator' ) ;
#130 = PERSON_AND_ORGANIZATION ( #5, #54 ) ;
#131 = CC_DESIGN_APPROVAL ( #139, ( #144 ) ) ;
#132 = APPROVAL_DATE_TIME ( #133, #139 ) ;
#133 = DATE_AND_TIME ( #134, #135 ) ;
#134 = CALENDAR_DATE ( 2013, 18, 11 ) ;
#135 = LOCAL_TIME ( 12, 56, 32.00000000000000000, #136 ) ;
#136 = COORDINATED_UNIVERSAL_TIME_OFFSET ( 5, 30, .AHEAD. ) ;
#137 = APPROVAL_PERSON_ORGANIZATION ( #141, #139, #138 ) ;
#138 = APPROVAL_ROLE ( '' ) ;
#139 = APPROVAL ( #140, 'UNSPECIFIED' ) ;
#140 = APPROVAL_STATUS ( 'not_yet_approved' ) ;
#141 = PERSON_AND_ORGANIZATION ( #5, #54 ) ;
#142 = DIRECTION ( 'NONE',  ( 0.0000000000000000000, 0.0000000000000000000, 1.000000000000000000 ) ) ;
#143 = CARTESIAN_POINT ( 'NONE',  ( 0.0000000000000000000, 0.0000000000000000000, 0.0000000000000000000 ) ) ;
#144 = PRODUCT_DEFINITION ( 'UNKNOWN', '', #121, #145 ) ;
#145 = DESIGN_CONTEXT ( 'detailed design', #147, 'design' ) ;
#146 = APPLICATION_PROTOCOL_DEFINITION ( 'international standard', 'config_control_design', 1994, #147 ) ;
#147 = APPLICATION_CONTEXT ( 'configuration controlled 3d designs of mechanical parts and assemblies' ) ;
#148 = DIRECTION ( 'NONE',  ( 0.0000000000000000000, 0.0000000000000000000, 1.000000000000000000 ) ) ;
#149 = DIRECTION ( 'NONE',  ( 0.0000000000000000000, 1.000000000000000000, 0.0000000000000000000 ) ) ;
#150 = CARTESIAN_POINT ( 'NONE',  ( 0.0000000000000000000, 1.600200000000000100, 0.0000000000000000000 ) ) ;
#151 = CIRCLE ( 'NONE', #113, 7.937500000000000000 ) ;
#152 = DIRECTION ( 'NONE',  ( 0.0000000000000000000, 0.0000000000000000000, -1.000000000000000000 ) ) ;
#153 = DIRECTION ( 'NONE',  ( 0.0000000000000000000, -1.000000000000000000, 0.0000000000000000000 ) ) ;
#154 = AXIS2_PLACEMENT_3D ( 'NONE', #114, #153, #152 ) ;
#155 = FACE_OUTER_BOUND ( 'NONE', #16, .T. ) ;
#156 = PLANE ( 'NONE',  #188 ) ;
#157 = DIRECTION ( 'NONE',  ( 0.0000000000000000000, 0.0000000000000000000, 1.000000000000000000 ) ) ;
#158 = DIRECTION ( 'NONE',  ( 0.0000000000000000000, 1.000000000000000000, 0.0000000000000000000 ) ) ;
#159 = AXIS2_PLACEMENT_3D ( 'NONE', #170, #158, #157 ) ;
#160 = CIRCLE ( 'NONE', #159, 4.165600000000000400 ) ;
#161 = FACE_BOUND ( 'NONE', #47, .T. ) ;
#162 = DIRECTION ( 'NONE',  ( 0.0000000000000000000, 0.0000000000000000000, -1.000000000000000000 ) ) ;
#163 = DIRECTION ( 'NONE',  ( 0.0000000000000000000, -1.000000000000000000, 0.0000000000000000000 ) ) ;
#164 = CARTESIAN_POINT ( 'NONE',  ( 0.0000000000000000000, 1.600200000000000100, 0.0000000000000000000 ) ) ;
#165 = AXIS2_PLACEMENT_3D ( 'NONE', #164, #163, #162 ) ;
#166 = DIRECTION ( 'NONE',  ( 0.0000000000000000000, 0.0000000000000000000, 1.000000000000000000 ) ) ;
#167 = DIRECTION ( 'NONE',  ( 0.0000000000000000000, 1.000000000000000000, 0.0000000000000000000 ) ) ;
#168 = CARTESIAN_POINT ( 'NONE',  ( 0.0000000000000000000, 1.600200000000000100, 0.0000000000000000000 ) ) ;
#169 = AXIS2_PLACEMENT_3D ( 'NONE', #143, #142, #103 ) ;
#170 = CARTESIAN_POINT ( 'NONE',  ( 0.0000000000000000000, 0.0000000000000000000, 0.0000000000000000000 ) ) ;
#171 = FACE_OUTER_BOUND ( 'NONE', #74, .T. ) ;
#172 = AXIS2_PLACEMENT_3D ( 'NONE', #177, #116, #115 ) ;
#173 = DIRECTION ( 'NONE',  ( 0.0000000000000000000, 0.0000000000000000000, 1.000000000000000000 ) ) ;
#174 = DIRECTION ( 'NONE',  ( 0.0000000000000000000, 1.000000000000000000, 0.0000000000000000000 ) ) ;
#175 = AXIS2_PLACEMENT_3D ( 'NONE', #181, #174, #173 ) ;
#176 = CIRCLE ( 'NONE', #175, 4.165600000000000400 ) ;
#177 = CARTESIAN_POINT ( 'NONE',  ( 0.0000000000000000000, 1.600200000000000100, 0.0000000000000000000 ) ) ;
#178 = CARTESIAN_POINT ( 'NONE',  ( 9.720633968232116200E-016, 1.600200000000000100, 7.937500000000000000 ) ) ;
#179 = CARTESIAN_POINT ( 'NONE',  ( 5.101388706528214000E-016, 0.0000000000000000000, 4.165600000000000400 ) ) ;
#180 = CARTESIAN_POINT ( 'NONE',  ( 0.0000000000000000000, 1.600200000000000100, -4.165600000000000400 ) ) ;
#181 = CARTESIAN_POINT ( 'NONE',  ( 0.0000000000000000000, 1.600200000000000100, 0.0000000000000000000 ) ) ;
#182 = AXIS2_PLACEMENT_3D ( 'NONE', #118, #210, #209 ) ;
#183 = LINE ( 'NONE', #215, #214 ) ;
#184 = CYLINDRICAL_SURFACE ( 'NONE', #172, 4.165600000000000400 ) ;
#185 = CIRCLE ( 'NONE', #189, 7.937500000000000000 ) ;
#186 = DIRECTION ( 'NONE',  ( 0.0000000000000000000, 0.0000000000000000000, 1.000000000000000000 ) ) ;
#187 = CYLINDRICAL_SURFACE ( 'NONE', #154, 7.937500000000000000 ) ;
#188 = AXIS2_PLACEMENT_3D ( 'NONE', #150, #149, #148 ) ;
#189 = AXIS2_PLACEMENT_3D ( 'NONE', #168, #167, #166 ) ;
#190 = DIRECTION ( 'NONE',  ( 0.0000000000000000000, 0.0000000000000000000, 1.000000000000000000 ) ) ;
#191 = DIRECTION ( 'NONE',  ( 0.0000000000000000000, 1.000000000000000000, 0.0000000000000000000 ) ) ;
#192 = AXIS2_PLACEMENT_3D ( 'NONE', #200, #191, #190 ) ;
#193 = FACE_OUTER_BOUND ( 'NONE', #69, .T. ) ;
#194 = DIRECTION ( 'NONE',  ( 0.0000000000000000000, 0.0000000000000000000, 1.000000000000000000 ) ) ;
#195 = DIRECTION ( 'NONE',  ( 0.0000000000000000000, 1.000000000000000000, 0.0000000000000000000 ) ) ;
#196 = CARTESIAN_POINT ( 'NONE',  ( 0.0000000000000000000, 0.0000000000000000000, 0.0000000000000000000 ) ) ;
#197 = AXIS2_PLACEMENT_3D ( 'NONE', #196, #195, #194 ) ;
#198 = CYLINDRICAL_SURFACE ( 'NONE', #165, 4.165600000000000400 ) ;
#199 = AXIS2_PLACEMENT_3D ( 'NONE', #207, #205, #186 ) ;
#200 = CARTESIAN_POINT ( 'NONE',  ( 0.0000000000000000000, 1.600200000000000100, 0.0000000000000000000 ) ) ;
#201 = CIRCLE ( 'NONE', #197, 7.937500000000000000 ) ;
#202 = DIRECTION ( 'NONE',  ( 0.0000000000000000000, -1.000000000000000000, 0.0000000000000000000 ) ) ;
#203 = VECTOR ( 'NONE', #202, 1000.000000000000000 ) ;
#204 = CARTESIAN_POINT ( 'NONE',  ( 0.0000000000000000000, 1.600200000000000100, -4.165600000000000400 ) ) ;
#205 = DIRECTION ( 'NONE',  ( 0.0000000000000000000, 1.000000000000000000, 0.0000000000000000000 ) ) ;
#206 = FACE_BOUND ( 'NONE', #52, .T. ) ;
#207 = CARTESIAN_POINT ( 'NONE',  ( 0.0000000000000000000, 0.0000000000000000000, 0.0000000000000000000 ) ) ;
#208 = PLANE ( 'NONE',  #199 ) ;
#209 = DIRECTION ( 'NONE',  ( 0.0000000000000000000, 0.0000000000000000000, 1.000000000000000000 ) ) ;
#210 = DIRECTION ( 'NONE',  ( 0.0000000000000000000, 1.000000000000000000, 0.0000000000000000000 ) ) ;
#211 = LINE ( 'NONE', #204, #203 ) ;
#212 = FACE_OUTER_BOUND ( 'NONE', #81, .T. ) ;
#213 = DIRECTION ( 'NONE',  ( 0.0000000000000000000, -1.000000000000000000, 0.0000000000000000000 ) ) ;
#214 = VECTOR ( 'NONE', #213, 1000.000000000000000 ) ;
#215 = CARTESIAN_POINT ( 'NONE',  ( 5.101388706528214000E-016, 1.600200000000000100, 4.165600000000000400 ) ) ;
#216 = CARTESIAN_POINT ( 'NONE',  ( 0.0000000000000000000, 0.0000000000000000000, -4.165600000000000400 ) ) ;
#217 = CIRCLE ( 'NONE', #182, 4.165600000000000400 ) ;
#218 = SHAPE_DEFINITION_REPRESENTATION ( #219, #104 ) ;
#219 = PRODUCT_DEFINITION_SHAPE ( 'NONE', 'NONE',  #144 ) ;
#220 = CC_DESIGN_PERSON_AND_ORGANIZATION_ASSIGNMENT ( #239, #221, ( #121 ) ) ;
#221 = PERSON_AND_ORGANIZATION_ROLE ( 'creator' ) ;
#222 = SECURITY_CLASSIFICATION_LEVEL ( 'unclassified' ) ;
#223 = CC_DESIGN_PERSON_AND_ORGANIZATION_ASSIGNMENT ( #225, #224, ( #121 ) ) ;
#224 = PERSON_AND_ORGANIZATION_ROLE ( 'design_supplier' ) ;
#225 = PERSON_AND_ORGANIZATION ( #5, #54 ) ;
#226 = PRODUCT_RELATED_PRODUCT_CATEGORY ( 'detail', '', ( #1 ) ) ;
#227 = CC_DESIGN_SECURITY_CLASSIFICATION ( #249, ( #121 ) ) ;
#228 = CC_DESIGN_APPROVAL ( #236, ( #249 ) ) ;
#229 = APPROVAL_DATE_TIME ( #230, #236 ) ;
#230 = DATE_AND_TIME ( #231, #232 ) ;
#231 = CALENDAR_DATE ( 2013, 18, 11 ) ;
#232 = LOCAL_TIME ( 12, 56, 32.00000000000000000, #233 ) ;
#233 = COORDINATED_UNIVERSAL_TIME_OFFSET ( 5, 30, .AHEAD. ) ;
#234 = APPROVAL_PERSON_ORGANIZATION ( #238, #236, #235 ) ;
#235 = APPROVAL_ROLE ( '' ) ;
#236 = APPROVAL ( #237, 'UNSPECIFIED' ) ;
#237 = APPROVAL_STATUS ( 'not_yet_approved' ) ;
#238 = PERSON_AND_ORGANIZATION ( #5, #54 ) ;
#239 = PERSON_AND_ORGANIZATION ( #5, #54 ) ;
#240 = CC_DESIGN_DATE_AND_TIME_ASSIGNMENT ( #242, #241, ( #249 ) ) ;
#241 = DATE_TIME_ROLE ( 'classification_date' ) ;
#242 = DATE_AND_TIME ( #243, #244 ) ;
#243 = CALENDAR_DATE ( 2013, 18, 11 ) ;
#244 = LOCAL_TIME ( 12, 56, 32.00000000000000000, #245 ) ;
#245 = COORDINATED_UNIVERSAL_TIME_OFFSET ( 5, 30, .AHEAD. ) ;
#246 = CC_DESIGN_PERSON_AND_ORGANIZATION_ASSIGNMENT ( #248, #247, ( #249 ) ) ;
#247 = PERSON_AND_ORGANIZATION_ROLE ( 'classification_officer' ) ;
#248 = PERSON_AND_ORGANIZATION ( #5, #54 ) ;
#249 = SECURITY_CLASSIFICATION ( '', '', #222 ) ;
ENDSEC;
END-ISO-10303-21;
