ISO-10303-21;
HEADER;
FILE_DESCRIPTION (( 'STEP AP203' ),
    '1' );
FILE_NAME ('B00137Q3JQ.3D.STEP',
    '2013-12-13T09:34:36',
    ( 'COMP' ),
    ( 'KTL' ),
    'SwSTEP 2.0',
    'SolidWorks 2010',
    '' );
FILE_SCHEMA (( 'CONFIG_CONTROL_DESIGN' ));
ENDSEC;

DATA;
#1 = EDGE_CURVE ( 'NONE', #21, #9, #83, .T. ) ;
#2 = ORIENTED_EDGE ( 'NONE', *, *, #1, .T. ) ;
#3 = ORIENTED_EDGE ( 'NONE', *, *, #5, .T. ) ;
#4 = ORIENTED_EDGE ( 'NONE', *, *, #51, .T. ) ;
#5 = EDGE_CURVE ( 'NONE', #12, #21, #78, .T. ) ;
#6 = ADVANCED_FACE ( 'NONE', ( #88 ), #89, .T. ) ;
#7 = EDGE_LOOP ( 'NONE', ( #44, #16, #48, #47 ) ) ;
#8 = EDGE_CURVE ( 'NONE', #12, #24, #79, .T. ) ;
#9 = VERTEX_POINT ( 'NONE', #56 ) ;
#10 = ORIENTED_EDGE ( 'NONE', *, *, #8, .F. ) ;
#11 = EDGE_CURVE ( 'NONE', #42, #43, #90, .T. ) ;
#12 = VERTEX_POINT ( 'NONE', #150 ) ;
#13 = VERTEX_POINT ( 'NONE', #126 ) ;
#14 = EDGE_LOOP ( 'NONE', ( #4, #19 ) ) ;
#15 = EDGE_LOOP ( 'NONE', ( #10, #3, #2, #26 ) ) ;
#16 = ORIENTED_EDGE ( 'NONE', *, *, #45, .T. ) ;
#17 = VERTEX_POINT ( 'NONE', #129 ) ;
#18 = ADVANCED_FACE ( 'NONE', ( #128 ), #165, .F. ) ;
#19 = ORIENTED_EDGE ( 'NONE', *, *, #8, .T. ) ;
#20 =( LENGTH_UNIT ( ) NAMED_UNIT ( * ) SI_UNIT ( .MILLI., .METRE. ) );
#21 = VERTEX_POINT ( 'NONE', #127 ) ;
#22 = MANIFOLD_SOLID_BREP ( 'Imported1', #35 ) ;
#23 = EDGE_LOOP ( 'NONE', ( #58, #57 ) ) ;
#24 = VERTEX_POINT ( 'NONE', #166 ) ;
#25 = ADVANCED_FACE ( 'NONE', ( #159, #164 ), #167, .T. ) ;
#26 = ORIENTED_EDGE ( 'NONE', *, *, #50, .F. ) ;
#27 = ORIENTED_EDGE ( 'NONE', *, *, #51, .F. ) ;
#28 = ORIENTED_EDGE ( 'NONE', *, *, #65, .T. ) ;
#29 = EDGE_LOOP ( 'NONE', ( #32, #38, #33, #36 ) ) ;
#30 = ADVANCED_FACE ( 'NONE', ( #168 ), #116, .F. ) ;
#31 =( NAMED_UNIT ( * ) SI_UNIT ( $, .STERADIAN. ) SOLID_ANGLE_UNIT ( ) );
#32 = ORIENTED_EDGE ( 'NONE', *, *, #45, .F. ) ;
#33 = ORIENTED_EDGE ( 'NONE', *, *, #49, .T. ) ;
#34 =( NAMED_UNIT ( * ) PLANE_ANGLE_UNIT ( ) SI_UNIT ( $, .RADIAN. ) );
#35 = CLOSED_SHELL ( 'NONE', ( #18, #6, #25, #41, #61, #30 ) ) ;
#36 = ORIENTED_EDGE ( 'NONE', *, *, #39, .F. ) ;
#37 = ORIENTED_EDGE ( 'NONE', *, *, #50, .T. ) ;
#38 = ORIENTED_EDGE ( 'NONE', *, *, #55, .T. ) ;
#39 = EDGE_CURVE ( 'NONE', #13, #17, #112, .T. ) ;
#40 = EDGE_LOOP ( 'NONE', ( #53, #63 ) ) ;
#41 = ADVANCED_FACE ( 'NONE', ( #107, #115 ), #121, .F. ) ;
#42 = VERTEX_POINT ( 'NONE', #104 ) ;
#43 = VERTEX_POINT ( 'NONE', #102 ) ;
#44 = ORIENTED_EDGE ( 'NONE', *, *, #11, .T. ) ;
#45 = EDGE_CURVE ( 'NONE', #43, #13, #149, .T. ) ;
#46 = EDGE_CURVE ( 'NONE', #17, #13, #101, .T. ) ;
#47 = ORIENTED_EDGE ( 'NONE', *, *, #49, .F. ) ;
#48 = ORIENTED_EDGE ( 'NONE', *, *, #46, .F. ) ;
#49 = EDGE_CURVE ( 'NONE', #42, #17, #131, .T. ) ;
#50 = EDGE_CURVE ( 'NONE', #24, #9, #154, .T. ) ;
#51 = EDGE_CURVE ( 'NONE', #24, #12, #99, .T. ) ;
#52 = ORIENTED_EDGE ( 'NONE', *, *, #65, .F. ) ;
#53 = ORIENTED_EDGE ( 'NONE', *, *, #46, .T. ) ;
#54 =( GEOMETRIC_REPRESENTATION_CONTEXT ( 3 ) GLOBAL_UNCERTAINTY_ASSIGNED_CONTEXT ( ( #59 ) ) GLOBAL_UNIT_ASSIGNED_CONTEXT ( ( #20, #34, #31 ) ) REPRESENTATION_CONTEXT ( 'NONE', 'WORKASPACE' ) );
#55 = EDGE_CURVE ( 'NONE', #43, #42, #145, .T. ) ;
#56 = CARTESIAN_POINT ( 'NONE',  ( -5.000000000000000000, 0.0000000000000000000, 0.0000000000000000000 ) ) ;
#57 = ORIENTED_EDGE ( 'NONE', *, *, #55, .F. ) ;
#58 = ORIENTED_EDGE ( 'NONE', *, *, #11, .F. ) ;
#59 = UNCERTAINTY_MEASURE_WITH_UNIT (LENGTH_MEASURE( 1.000000000000000100E-005 ), #20, 'distance_accuracy_value', 'NONE');
#60 = ORIENTED_EDGE ( 'NONE', *, *, #5, .F. ) ;
#61 = ADVANCED_FACE ( 'NONE', ( #146 ), #156, .T. ) ;
#62 = EDGE_LOOP ( 'NONE', ( #60, #27, #37, #28 ) ) ;
#63 = ORIENTED_EDGE ( 'NONE', *, *, #39, .T. ) ;
#64 = EDGE_LOOP ( 'NONE', ( #52, #66 ) ) ;
#65 = EDGE_CURVE ( 'NONE', #9, #21, #155, .T. ) ;
#66 = ORIENTED_EDGE ( 'NONE', *, *, #1, .F. ) ;
#67 = ADVANCED_BREP_SHAPE_REPRESENTATION ( 'B00137Q3JQ.3D', ( #22, #208 ), #54 ) ;
#68 = DIRECTION ( 'NONE',  ( 1.000000000000000000, 0.0000000000000000000, 0.0000000000000000000 ) ) ;
#69 = DIRECTION ( 'NONE',  ( 0.0000000000000000000, 0.0000000000000000000, 1.000000000000000000 ) ) ;
#70 = DIRECTION ( 'NONE',  ( 1.000000000000000000, 0.0000000000000000000, 0.0000000000000000000 ) ) ;
#71 = DIRECTION ( 'NONE',  ( 0.0000000000000000000, 0.0000000000000000000, 1.000000000000000000 ) ) ;
#72 = AXIS2_PLACEMENT_3D ( 'NONE', #73, #71, #70 ) ;
#73 = CARTESIAN_POINT ( 'NONE',  ( 0.0000000000000000000, 0.0000000000000000000, 15.00000000000000000 ) ) ;
#74 = AXIS2_PLACEMENT_3D ( 'NONE', #86, #69, #68 ) ;
#75 = CARTESIAN_POINT ( 'NONE',  ( 0.0000000000000000000, 0.0000000000000000000, 0.0000000000000000000 ) ) ;
#76 = DIRECTION ( 'NONE',  ( 0.0000000000000000000, 0.0000000000000000000, -1.000000000000000000 ) ) ;
#77 = CARTESIAN_POINT ( 'NONE',  ( 5.000000000000000000, 6.123233995736766300E-016, 15.00000000000000000 ) ) ;
#78 = LINE ( 'NONE', #77, #92 ) ;
#79 = CIRCLE ( 'NONE', #72, 5.000000000000000000 ) ;
#80 = DIRECTION ( 'NONE',  ( 1.000000000000000000, 0.0000000000000000000, 0.0000000000000000000 ) ) ;
#81 = DIRECTION ( 'NONE',  ( 0.0000000000000000000, 0.0000000000000000000, 1.000000000000000000 ) ) ;
#82 = AXIS2_PLACEMENT_3D ( 'NONE', #75, #81, #80 ) ;
#83 = CIRCLE ( 'NONE', #82, 5.000000000000000000 ) ;
#84 = DIRECTION ( 'NONE',  ( -1.000000000000000000, 0.0000000000000000000, 0.0000000000000000000 ) ) ;
#85 = CARTESIAN_POINT ( 'NONE',  ( 0.0000000000000000000, 0.0000000000000000000, 15.00000000000000000 ) ) ;
#86 = CARTESIAN_POINT ( 'NONE',  ( 0.0000000000000000000, 0.0000000000000000000, 15.00000000000000000 ) ) ;
#87 = AXIS2_PLACEMENT_3D ( 'NONE', #85, #91, #84 ) ;
#88 = FACE_OUTER_BOUND ( 'NONE', #15, .T. ) ;
#89 = CYLINDRICAL_SURFACE ( 'NONE', #87, 5.000000000000000000 ) ;
#90 = CIRCLE ( 'NONE', #74, 2.649999999999999900 ) ;
#91 = DIRECTION ( 'NONE',  ( 0.0000000000000000000, 0.0000000000000000000, -1.000000000000000000 ) ) ;
#92 = VECTOR ( 'NONE', #76, 1000.000000000000000 ) ;
#93 = DIRECTION ( 'NONE',  ( 0.0000000000000000000, 0.0000000000000000000, 1.000000000000000000 ) ) ;
#94 = VECTOR ( 'NONE', #158, 1000.000000000000000 ) ;
#95 = AXIS2_PLACEMENT_3D ( 'NONE', #100, #143, #142 ) ;
#96 = DIRECTION ( 'NONE',  ( 0.0000000000000000000, 0.0000000000000000000, -1.000000000000000000 ) ) ;
#97 = VECTOR ( 'NONE', #96, 1000.000000000000000 ) ;
#98 = CARTESIAN_POINT ( 'NONE',  ( 2.649999999999999900, 3.245314017740486000E-016, 15.00000000000000000 ) ) ;
#99 = CIRCLE ( 'NONE', #95, 5.000000000000000000 ) ;
#100 = CARTESIAN_POINT ( 'NONE',  ( 0.0000000000000000000, 0.0000000000000000000, 15.00000000000000000 ) ) ;
#101 = CIRCLE ( 'NONE', #148, 2.649999999999999900 ) ;
#102 = CARTESIAN_POINT ( 'NONE',  ( 2.649999999999999900, 3.245314017740486000E-016, 15.00000000000000000 ) ) ;
#103 = CARTESIAN_POINT ( 'NONE',  ( 0.0000000000000000000, 0.0000000000000000000, 15.00000000000000000 ) ) ;
#104 = CARTESIAN_POINT ( 'NONE',  ( -2.649999999999999900, 0.0000000000000000000, 15.00000000000000000 ) ) ;
#105 = DIRECTION ( 'NONE',  ( 1.000000000000000000, 0.0000000000000000000, 0.0000000000000000000 ) ) ;
#106 = CARTESIAN_POINT ( 'NONE',  ( 0.0000000000000000000, 0.0000000000000000000, 0.0000000000000000000 ) ) ;
#107 = FACE_OUTER_BOUND ( 'NONE', #64, .T. ) ;
#108 = DIRECTION ( 'NONE',  ( 1.000000000000000000, 0.0000000000000000000, 0.0000000000000000000 ) ) ;
#109 = DIRECTION ( 'NONE',  ( 0.0000000000000000000, 0.0000000000000000000, 1.000000000000000000 ) ) ;
#110 = AXIS2_PLACEMENT_3D ( 'NONE', #119, #109, #108 ) ;
#111 = CARTESIAN_POINT ( 'NONE',  ( 0.0000000000000000000, 0.0000000000000000000, 0.0000000000000000000 ) ) ;
#112 = CIRCLE ( 'NONE', #110, 2.649999999999999900 ) ;
#113 = DIRECTION ( 'NONE',  ( -1.000000000000000000, 0.0000000000000000000, 0.0000000000000000000 ) ) ;
#114 = DIRECTION ( 'NONE',  ( 0.0000000000000000000, 0.0000000000000000000, -1.000000000000000000 ) ) ;
#115 = FACE_BOUND ( 'NONE', #40, .T. ) ;
#116 = CYLINDRICAL_SURFACE ( 'NONE', #123, 2.649999999999999900 ) ;
#117 = DIRECTION ( 'NONE',  ( 1.000000000000000000, 0.0000000000000000000, 0.0000000000000000000 ) ) ;
#118 = DIRECTION ( 'NONE',  ( 0.0000000000000000000, 0.0000000000000000000, 1.000000000000000000 ) ) ;
#119 = CARTESIAN_POINT ( 'NONE',  ( 0.0000000000000000000, 0.0000000000000000000, 0.0000000000000000000 ) ) ;
#120 = DIRECTION ( 'NONE',  ( 0.0000000000000000000, 0.0000000000000000000, 1.000000000000000000 ) ) ;
#121 = PLANE ( 'NONE',  #124 ) ;
#122 = CARTESIAN_POINT ( 'NONE',  ( 0.0000000000000000000, 0.0000000000000000000, 15.00000000000000000 ) ) ;
#123 = AXIS2_PLACEMENT_3D ( 'NONE', #122, #114, #113 ) ;
#124 = AXIS2_PLACEMENT_3D ( 'NONE', #111, #120, #105 ) ;
#125 = CARTESIAN_POINT ( 'NONE',  ( 0.0000000000000000000, 0.0000000000000000000, 15.00000000000000000 ) ) ;
#126 = CARTESIAN_POINT ( 'NONE',  ( 2.649999999999999900, 3.245314017740486000E-016, 0.0000000000000000000 ) ) ;
#127 = CARTESIAN_POINT ( 'NONE',  ( 5.000000000000000000, 6.123233995736766300E-016, 0.0000000000000000000 ) ) ;
#128 = FACE_OUTER_BOUND ( 'NONE', #7, .T. ) ;
#129 = CARTESIAN_POINT ( 'NONE',  ( -2.649999999999999900, 0.0000000000000000000, 0.0000000000000000000 ) ) ;
#130 = CARTESIAN_POINT ( 'NONE',  ( -2.649999999999999900, 0.0000000000000000000, 15.00000000000000000 ) ) ;
#131 = LINE ( 'NONE', #130, #94 ) ;
#132 = AXIS2_PLACEMENT_3D ( 'NONE', #125, #118, #117 ) ;
#133 = DIRECTION ( 'NONE',  ( 1.000000000000000000, 0.0000000000000000000, 0.0000000000000000000 ) ) ;
#134 = DIRECTION ( 'NONE',  ( 0.0000000000000000000, 0.0000000000000000000, 1.000000000000000000 ) ) ;
#135 = DIRECTION ( 'NONE',  ( -1.000000000000000000, 0.0000000000000000000, 0.0000000000000000000 ) ) ;
#136 = CARTESIAN_POINT ( 'NONE',  ( 0.0000000000000000000, 0.0000000000000000000, 0.0000000000000000000 ) ) ;
#137 = AXIS2_PLACEMENT_3D ( 'NONE', #103, #138, #135 ) ;
#138 = DIRECTION ( 'NONE',  ( 0.0000000000000000000, 0.0000000000000000000, -1.000000000000000000 ) ) ;
#139 = DIRECTION ( 'NONE',  ( 1.000000000000000000, 0.0000000000000000000, 0.0000000000000000000 ) ) ;
#140 = DIRECTION ( 'NONE',  ( 0.0000000000000000000, 0.0000000000000000000, 1.000000000000000000 ) ) ;
#141 = CARTESIAN_POINT ( 'NONE',  ( 0.0000000000000000000, 0.0000000000000000000, 15.00000000000000000 ) ) ;
#142 = DIRECTION ( 'NONE',  ( 1.000000000000000000, 0.0000000000000000000, 0.0000000000000000000 ) ) ;
#143 = DIRECTION ( 'NONE',  ( 0.0000000000000000000, 0.0000000000000000000, 1.000000000000000000 ) ) ;
#144 = AXIS2_PLACEMENT_3D ( 'NONE', #141, #140, #139 ) ;
#145 = CIRCLE ( 'NONE', #144, 2.649999999999999900 ) ;
#146 = FACE_OUTER_BOUND ( 'NONE', #62, .T. ) ;
#147 = AXIS2_PLACEMENT_3D ( 'NONE', #136, #134, #133 ) ;
#148 = AXIS2_PLACEMENT_3D ( 'NONE', #106, #93, #157 ) ;
#149 = LINE ( 'NONE', #98, #97 ) ;
#150 = CARTESIAN_POINT ( 'NONE',  ( 5.000000000000000000, 6.123233995736766300E-016, 15.00000000000000000 ) ) ;
#151 = DIRECTION ( 'NONE',  ( 0.0000000000000000000, 0.0000000000000000000, -1.000000000000000000 ) ) ;
#152 = VECTOR ( 'NONE', #151, 1000.000000000000000 ) ;
#153 = CARTESIAN_POINT ( 'NONE',  ( -5.000000000000000000, 0.0000000000000000000, 15.00000000000000000 ) ) ;
#154 = LINE ( 'NONE', #153, #152 ) ;
#155 = CIRCLE ( 'NONE', #147, 5.000000000000000000 ) ;
#156 = CYLINDRICAL_SURFACE ( 'NONE', #137, 5.000000000000000000 ) ;
#157 = DIRECTION ( 'NONE',  ( 1.000000000000000000, 0.0000000000000000000, 0.0000000000000000000 ) ) ;
#158 = DIRECTION ( 'NONE',  ( 0.0000000000000000000, 0.0000000000000000000, -1.000000000000000000 ) ) ;
#159 = FACE_OUTER_BOUND ( 'NONE', #14, .T. ) ;
#160 = DIRECTION ( 'NONE',  ( -1.000000000000000000, 0.0000000000000000000, 0.0000000000000000000 ) ) ;
#161 = DIRECTION ( 'NONE',  ( 0.0000000000000000000, 0.0000000000000000000, -1.000000000000000000 ) ) ;
#162 = CARTESIAN_POINT ( 'NONE',  ( 0.0000000000000000000, 0.0000000000000000000, 15.00000000000000000 ) ) ;
#163 = AXIS2_PLACEMENT_3D ( 'NONE', #162, #161, #160 ) ;
#164 = FACE_BOUND ( 'NONE', #23, .T. ) ;
#165 = CYLINDRICAL_SURFACE ( 'NONE', #163, 2.649999999999999900 ) ;
#166 = CARTESIAN_POINT ( 'NONE',  ( -5.000000000000000000, 0.0000000000000000000, 15.00000000000000000 ) ) ;
#167 = PLANE ( 'NONE',  #132 ) ;
#168 = FACE_OUTER_BOUND ( 'NONE', #29, .T. ) ;
#169 = PERSON ( 'UNSPECIFIED', 'UNSPECIFIED', 'UNSPECIFIED', ('UNSPECIFIED'), ('UNSPECIFIED'), ('UNSPECIFIED') ) ;
#170 = PRODUCT ( 'B00137Q3JQ.3D', 'B00137Q3JQ.3D', '', ( #171 ) ) ;
#171 = MECHANICAL_CONTEXT ( 'NONE', #207, 'mechanical' ) ;
#172 = APPLICATION_PROTOCOL_DEFINITION ( 'international standard', 'config_control_design', 1994, #207 ) ;
#173 = PRODUCT_DEFINITION_SHAPE ( 'NONE', 'NONE',  #196 ) ;
#174 = PRODUCT_RELATED_PRODUCT_CATEGORY ( 'detail', '', ( #170 ) ) ;
#175 = PRODUCT_DEFINITION_FORMATION_WITH_SPECIFIED_SOURCE ( 'ANY', '', #170, .NOT_KNOWN. ) ;
#176 = CC_DESIGN_DATE_AND_TIME_ASSIGNMENT ( #178, #177, ( #196 ) ) ;
#177 = DATE_TIME_ROLE ( 'creation_date' ) ;
#178 = DATE_AND_TIME ( #179, #180 ) ;
#179 = CALENDAR_DATE ( 2013, 13, 12 ) ;
#180 = LOCAL_TIME ( 15, 4, 36.00000000000000000, #181 ) ;
#181 = COORDINATED_UNIVERSAL_TIME_OFFSET ( 5, 30, .AHEAD. ) ;
#182 = CC_DESIGN_PERSON_AND_ORGANIZATION_ASSIGNMENT ( #184, #183, ( #196 ) ) ;
#183 = PERSON_AND_ORGANIZATION_ROLE ( 'creator' ) ;
#184 = PERSON_AND_ORGANIZATION ( #169, #204 ) ;
#185 = CC_DESIGN_APPROVAL ( #193, ( #196 ) ) ;
#186 = APPROVAL_DATE_TIME ( #187, #193 ) ;
#187 = DATE_AND_TIME ( #188, #189 ) ;
#188 = CALENDAR_DATE ( 2013, 13, 12 ) ;
#189 = LOCAL_TIME ( 15, 4, 36.00000000000000000, #190 ) ;
#190 = COORDINATED_UNIVERSAL_TIME_OFFSET ( 5, 30, .AHEAD. ) ;
#191 = APPROVAL_PERSON_ORGANIZATION ( #195, #193, #192 ) ;
#192 = APPROVAL_ROLE ( '' ) ;
#193 = APPROVAL ( #194, 'UNSPECIFIED' ) ;
#194 = APPROVAL_STATUS ( 'not_yet_approved' ) ;
#195 = PERSON_AND_ORGANIZATION ( #169, #204 ) ;
#196 = PRODUCT_DEFINITION ( 'UNKNOWN', '', #175, #197 ) ;
#197 = DESIGN_CONTEXT ( 'detailed design', #199, 'design' ) ;
#198 = APPLICATION_PROTOCOL_DEFINITION ( 'international standard', 'config_control_design', 1994, #199 ) ;
#199 = APPLICATION_CONTEXT ( 'configuration controlled 3d designs of mechanical parts and assemblies' ) ;
#200 = SHAPE_DEFINITION_REPRESENTATION ( #173, #67 ) ;
#201 = CC_DESIGN_PERSON_AND_ORGANIZATION_ASSIGNMENT ( #203, #202, ( #170 ) ) ;
#202 = PERSON_AND_ORGANIZATION_ROLE ( 'design_owner' ) ;
#203 = PERSON_AND_ORGANIZATION ( #169, #204 ) ;
#204 = ORGANIZATION ( 'UNSPECIFIED', 'UNSPECIFIED', '' ) ;
#205 = CARTESIAN_POINT ( 'NONE',  ( 0.0000000000000000000, 0.0000000000000000000, 0.0000000000000000000 ) ) ;
#206 = DIRECTION ( 'NONE',  ( 1.000000000000000000, 0.0000000000000000000, 0.0000000000000000000 ) ) ;
#207 = APPLICATION_CONTEXT ( 'configuration controlled 3d designs of mechanical parts and assemblies' ) ;
#208 = AXIS2_PLACEMENT_3D ( 'NONE', #205, #209, #206 ) ;
#209 = DIRECTION ( 'NONE',  ( 0.0000000000000000000, 0.0000000000000000000, 1.000000000000000000 ) ) ;
#210 = CC_DESIGN_SECURITY_CLASSIFICATION ( #231, ( #175 ) ) ;
#211 = CC_DESIGN_APPROVAL ( #219, ( #231 ) ) ;
#212 = APPROVAL_DATE_TIME ( #213, #219 ) ;
#213 = DATE_AND_TIME ( #214, #215 ) ;
#214 = CALENDAR_DATE ( 2013, 13, 12 ) ;
#215 = LOCAL_TIME ( 15, 4, 36.00000000000000000, #216 ) ;
#216 = COORDINATED_UNIVERSAL_TIME_OFFSET ( 5, 30, .AHEAD. ) ;
#217 = APPROVAL_PERSON_ORGANIZATION ( #221, #219, #218 ) ;
#218 = APPROVAL_ROLE ( '' ) ;
#219 = APPROVAL ( #220, 'UNSPECIFIED' ) ;
#220 = APPROVAL_STATUS ( 'not_yet_approved' ) ;
#221 = PERSON_AND_ORGANIZATION ( #169, #204 ) ;
#222 = CC_DESIGN_DATE_AND_TIME_ASSIGNMENT ( #224, #223, ( #231 ) ) ;
#223 = DATE_TIME_ROLE ( 'classification_date' ) ;
#224 = DATE_AND_TIME ( #225, #226 ) ;
#225 = CALENDAR_DATE ( 2013, 13, 12 ) ;
#226 = LOCAL_TIME ( 15, 4, 36.00000000000000000, #227 ) ;
#227 = COORDINATED_UNIVERSAL_TIME_OFFSET ( 5, 30, .AHEAD. ) ;
#228 = CC_DESIGN_PERSON_AND_ORGANIZATION_ASSIGNMENT ( #230, #229, ( #231 ) ) ;
#229 = PERSON_AND_ORGANIZATION_ROLE ( 'classification_officer' ) ;
#230 = PERSON_AND_ORGANIZATION ( #169, #204 ) ;
#231 = SECURITY_CLASSIFICATION ( '', '', #232 ) ;
#232 = SECURITY_CLASSIFICATION_LEVEL ( 'unclassified' ) ;
#233 = CC_DESIGN_PERSON_AND_ORGANIZATION_ASSIGNMENT ( #235, #234, ( #175 ) ) ;
#234 = PERSON_AND_ORGANIZATION_ROLE ( 'design_supplier' ) ;
#235 = PERSON_AND_ORGANIZATION ( #169, #204 ) ;
#236 = CC_DESIGN_PERSON_AND_ORGANIZATION_ASSIGNMENT ( #238, #237, ( #175 ) ) ;
#237 = PERSON_AND_ORGANIZATION_ROLE ( 'creator' ) ;
#238 = PERSON_AND_ORGANIZATION ( #169, #204 ) ;
#239 = CC_DESIGN_APPROVAL ( #247, ( #175 ) ) ;
#240 = APPROVAL_DATE_TIME ( #241, #247 ) ;
#241 = DATE_AND_TIME ( #242, #243 ) ;
#242 = CALENDAR_DATE ( 2013, 13, 12 ) ;
#243 = LOCAL_TIME ( 15, 4, 36.00000000000000000, #244 ) ;
#244 = COORDINATED_UNIVERSAL_TIME_OFFSET ( 5, 30, .AHEAD. ) ;
#245 = APPROVAL_PERSON_ORGANIZATION ( #249, #247, #246 ) ;
#246 = APPROVAL_ROLE ( '' ) ;
#247 = APPROVAL ( #248, 'UNSPECIFIED' ) ;
#248 = APPROVAL_STATUS ( 'not_yet_approved' ) ;
#249 = PERSON_AND_ORGANIZATION ( #169, #204 ) ;
ENDSEC;
END-ISO-10303-21;
