ISO-10303-21;
HEADER;
FILE_DESCRIPTION (( 'STEP AP203' ),
    '1' );
FILE_NAME ('B009YLL67C.3D.STEP',
    '2013-11-28T07:22:13',
    ( 'COMP' ),
    ( 'KTL' ),
    'SwSTEP 2.0',
    'SolidWorks 2010',
    '' );
FILE_SCHEMA (( 'CONFIG_CONTROL_DESIGN' ));
ENDSEC;

DATA;
#1 = ORIENTED_EDGE ( 'NONE', *, *, #75, .F. ) ;
#2 = EDGE_CURVE ( 'NONE', #86, #76, #98, .T. ) ;
#3 = ADVANCED_FACE ( 'NONE', ( #102, #99 ), #114, .F. ) ;
#4 = EDGE_LOOP ( 'NONE', ( #85, #12 ) ) ;
#5 = EDGE_LOOP ( 'NONE', ( #1, #54 ) ) ;
#6 = ORIENTED_EDGE ( 'NONE', *, *, #79, .T. ) ;
#7 = EDGE_LOOP ( 'NONE', ( #6, #10 ) ) ;
#8 = ORIENTED_EDGE ( 'NONE', *, *, #55, .F. ) ;
#9 = ORIENTED_EDGE ( 'NONE', *, *, #64, .F. ) ;
#10 = ORIENTED_EDGE ( 'NONE', *, *, #13, .T. ) ;
#11 = ADVANCED_FACE ( 'NONE', ( #97 ), #111, .T. ) ;
#12 = ORIENTED_EDGE ( 'NONE', *, *, #67, .F. ) ;
#13 = EDGE_CURVE ( 'NONE', #74, #88, #20, .T. ) ;
#14 = ORIENTED_EDGE ( 'NONE', *, *, #89, .T. ) ;
#15 = EDGE_CURVE ( 'NONE', #66, #59, #35, .T. ) ;
#16 = EDGE_LOOP ( 'NONE', ( #9, #8, #69, #24 ) ) ;
#17 = ADVANCED_FACE ( 'NONE', ( #96 ), #154, .F. ) ;
#18 = CLOSED_SHELL ( 'NONE', ( #83, #92, #56, #3, #11, #17 ) ) ;
#19 = EDGE_LOOP ( 'NONE', ( #23, #22, #14, #21 ) ) ;
#20 = CIRCLE ( 'NONE', #28, 3.200400000000000100 ) ;
#21 = ORIENTED_EDGE ( 'NONE', *, *, #13, .F. ) ;
#22 = ORIENTED_EDGE ( 'NONE', *, *, #2, .T. ) ;
#23 = ORIENTED_EDGE ( 'NONE', *, *, #70, .F. ) ;
#24 = ORIENTED_EDGE ( 'NONE', *, *, #15, .T. ) ;
#25 = DIRECTION ( 'NONE',  ( 0.0000000000000000000, 0.0000000000000000000, 1.000000000000000000 ) ) ;
#26 = CARTESIAN_POINT ( 'NONE',  ( 0.0000000000000000000, 0.0000000000000000000, 0.0000000000000000000 ) ) ;
#27 = CARTESIAN_POINT ( 'NONE',  ( 0.0000000000000000000, 0.0000000000000000000, 0.0000000000000000000 ) ) ;
#28 = AXIS2_PLACEMENT_3D ( 'NONE', #27, #30, #29 ) ;
#29 = DIRECTION ( 'NONE',  ( 1.000000000000000000, 0.0000000000000000000, 0.0000000000000000000 ) ) ;
#30 = DIRECTION ( 'NONE',  ( 0.0000000000000000000, 0.0000000000000000000, 1.000000000000000000 ) ) ;
#31 = DIRECTION ( 'NONE',  ( 0.0000000000000000000, 0.0000000000000000000, -1.000000000000000000 ) ) ;
#32 = CARTESIAN_POINT ( 'NONE',  ( 0.0000000000000000000, 0.0000000000000000000, 12.69999999999999900 ) ) ;
#33 = DIRECTION ( 'NONE',  ( 1.000000000000000000, 0.0000000000000000000, 0.0000000000000000000 ) ) ;
#34 = AXIS2_PLACEMENT_3D ( 'NONE', #32, #31, #40 ) ;
#35 = CIRCLE ( 'NONE', #36, 6.349999999999999600 ) ;
#36 = AXIS2_PLACEMENT_3D ( 'NONE', #39, #38, #37 ) ;
#37 = DIRECTION ( 'NONE',  ( 1.000000000000000000, 0.0000000000000000000, 0.0000000000000000000 ) ) ;
#38 = DIRECTION ( 'NONE',  ( 0.0000000000000000000, 0.0000000000000000000, 1.000000000000000000 ) ) ;
#39 = CARTESIAN_POINT ( 'NONE',  ( 0.0000000000000000000, 0.0000000000000000000, 0.0000000000000000000 ) ) ;
#40 = DIRECTION ( 'NONE',  ( -1.000000000000000000, 0.0000000000000000000, 0.0000000000000000000 ) ) ;
#41 =( NAMED_UNIT ( * ) PLANE_ANGLE_UNIT ( ) SI_UNIT ( $, .RADIAN. ) );
#42 = UNCERTAINTY_MEASURE_WITH_UNIT (LENGTH_MEASURE( 1.000000000000000100E-005 ), #174, 'distance_accuracy_value', 'NONE');
#43 =( NAMED_UNIT ( * ) SI_UNIT ( $, .STERADIAN. ) SOLID_ANGLE_UNIT ( ) );
#44 =( GEOMETRIC_REPRESENTATION_CONTEXT ( 3 ) GLOBAL_UNCERTAINTY_ASSIGNED_CONTEXT ( ( #42 ) ) GLOBAL_UNIT_ASSIGNED_CONTEXT ( ( #174, #41, #43 ) ) REPRESENTATION_CONTEXT ( 'NONE', 'WORKASPACE' ) );
#45 = PERSON_AND_ORGANIZATION ( #245, #202 ) ;
#46 = VECTOR ( 'NONE', #50, 1000.000000000000000 ) ;
#47 = ADVANCED_BREP_SHAPE_REPRESENTATION ( 'B009YLL67C.3D', ( #82, #190 ), #44 ) ;
#48 = LINE ( 'NONE', #49, #46 ) ;
#49 = CARTESIAN_POINT ( 'NONE',  ( -3.200400000000000100, 0.0000000000000000000, 12.69999999999999900 ) ) ;
#50 = DIRECTION ( 'NONE',  ( 0.0000000000000000000, 0.0000000000000000000, -1.000000000000000000 ) ) ;
#51 = CALENDAR_DATE ( 2013, 28, 11 ) ;
#52 = ORIENTED_EDGE ( 'NONE', *, *, #55, .T. ) ;
#53 = ORIENTED_EDGE ( 'NONE', *, *, #62, .T. ) ;
#54 = ORIENTED_EDGE ( 'NONE', *, *, #2, .F. ) ;
#55 = EDGE_CURVE ( 'NONE', #68, #65, #150, .T. ) ;
#56 = ADVANCED_FACE ( 'NONE', ( #121, #147 ), #151, .T. ) ;
#57 = ORIENTED_EDGE ( 'NONE', *, *, #67, .T. ) ;
#58 = ORIENTED_EDGE ( 'NONE', *, *, #61, .F. ) ;
#59 = VERTEX_POINT ( 'NONE', #123 ) ;
#60 = EDGE_LOOP ( 'NONE', ( #52, #53 ) ) ;
#61 = EDGE_CURVE ( 'NONE', #68, #66, #127, .T. ) ;
#62 = EDGE_CURVE ( 'NONE', #65, #68, #124, .T. ) ;
#63 = ORIENTED_EDGE ( 'NONE', *, *, #64, .T. ) ;
#64 = EDGE_CURVE ( 'NONE', #65, #59, #163, .T. ) ;
#65 = VERTEX_POINT ( 'NONE', #159 ) ;
#66 = VERTEX_POINT ( 'NONE', #158 ) ;
#67 = EDGE_CURVE ( 'NONE', #59, #66, #138, .T. ) ;
#68 = VERTEX_POINT ( 'NONE', #168 ) ;
#69 = ORIENTED_EDGE ( 'NONE', *, *, #61, .T. ) ;
#70 = EDGE_CURVE ( 'NONE', #86, #74, #169, .T. ) ;
#71 = ORIENTED_EDGE ( 'NONE', *, *, #75, .T. ) ;
#72 = ORIENTED_EDGE ( 'NONE', *, *, #70, .T. ) ;
#73 = LOCAL_TIME ( 12, 52, 13.00000000000000000, #77 ) ;
#74 = VERTEX_POINT ( 'NONE', #175 ) ;
#75 = EDGE_CURVE ( 'NONE', #76, #86, #181, .T. ) ;
#76 = VERTEX_POINT ( 'NONE', #180 ) ;
#77 = COORDINATED_UNIVERSAL_TIME_OFFSET ( 5, 30, .AHEAD. ) ;
#78 = ORIENTED_EDGE ( 'NONE', *, *, #62, .F. ) ;
#79 = EDGE_CURVE ( 'NONE', #88, #74, #184, .T. ) ;
#80 = DATE_AND_TIME ( #51, #73 ) ;
#81 = ORIENTED_EDGE ( 'NONE', *, *, #79, .F. ) ;
#82 = MANIFOLD_SOLID_BREP ( 'Imported1', #18 ) ;
#83 = ADVANCED_FACE ( 'NONE', ( #130 ), #112, .F. ) ;
#84 = EDGE_LOOP ( 'NONE', ( #71, #72, #81, #87 ) ) ;
#85 = ORIENTED_EDGE ( 'NONE', *, *, #15, .F. ) ;
#86 = VERTEX_POINT ( 'NONE', #157 ) ;
#87 = ORIENTED_EDGE ( 'NONE', *, *, #89, .F. ) ;
#88 = VERTEX_POINT ( 'NONE', #143 ) ;
#89 = EDGE_CURVE ( 'NONE', #76, #88, #48, .T. ) ;
#90 = EDGE_LOOP ( 'NONE', ( #78, #63, #57, #58 ) ) ;
#91 = PERSON_AND_ORGANIZATION_ROLE ( 'design_supplier' ) ;
#92 = ADVANCED_FACE ( 'NONE', ( #165 ), #113, .T. ) ;
#93 = CC_DESIGN_DATE_AND_TIME_ASSIGNMENT ( #80, #94, ( #140 ) ) ;
#94 = DATE_TIME_ROLE ( 'classification_date' ) ;
#95 = CC_DESIGN_PERSON_AND_ORGANIZATION_ASSIGNMENT ( #45, #91, ( #237 ) ) ;
#96 = FACE_OUTER_BOUND ( 'NONE', #19, .T. ) ;
#97 = FACE_OUTER_BOUND ( 'NONE', #16, .T. ) ;
#98 = CIRCLE ( 'NONE', #118, 3.200400000000000100 ) ;
#99 = FACE_BOUND ( 'NONE', #7, .T. ) ;
#100 = CARTESIAN_POINT ( 'NONE',  ( 0.0000000000000000000, 0.0000000000000000000, 0.0000000000000000000 ) ) ;
#101 = DIRECTION ( 'NONE',  ( 0.0000000000000000000, 0.0000000000000000000, -1.000000000000000000 ) ) ;
#102 = FACE_OUTER_BOUND ( 'NONE', #4, .T. ) ;
#103 = AXIS2_PLACEMENT_3D ( 'NONE', #100, #120, #119 ) ;
#104 = DIRECTION ( 'NONE',  ( -1.000000000000000000, 0.0000000000000000000, 0.0000000000000000000 ) ) ;
#105 = DIRECTION ( 'NONE',  ( -1.000000000000000000, 0.0000000000000000000, 0.0000000000000000000 ) ) ;
#106 = CARTESIAN_POINT ( 'NONE',  ( 0.0000000000000000000, 0.0000000000000000000, 12.69999999999999900 ) ) ;
#107 = AXIS2_PLACEMENT_3D ( 'NONE', #106, #108, #104 ) ;
#108 = DIRECTION ( 'NONE',  ( 0.0000000000000000000, 0.0000000000000000000, -1.000000000000000000 ) ) ;
#109 = CARTESIAN_POINT ( 'NONE',  ( 0.0000000000000000000, 0.0000000000000000000, 12.69999999999999900 ) ) ;
#110 = AXIS2_PLACEMENT_3D ( 'NONE', #109, #101, #105 ) ;
#111 = CYLINDRICAL_SURFACE ( 'NONE', #110, 6.349999999999999600 ) ;
#112 = CYLINDRICAL_SURFACE ( 'NONE', #34, 3.200400000000000100 ) ;
#113 = CYLINDRICAL_SURFACE ( 'NONE', #107, 6.349999999999999600 ) ;
#114 = PLANE ( 'NONE',  #103 ) ;
#115 = DIRECTION ( 'NONE',  ( 1.000000000000000000, 0.0000000000000000000, 0.0000000000000000000 ) ) ;
#116 = DIRECTION ( 'NONE',  ( 0.0000000000000000000, 0.0000000000000000000, 1.000000000000000000 ) ) ;
#117 = CARTESIAN_POINT ( 'NONE',  ( 0.0000000000000000000, 0.0000000000000000000, 12.69999999999999900 ) ) ;
#118 = AXIS2_PLACEMENT_3D ( 'NONE', #117, #116, #115 ) ;
#119 = DIRECTION ( 'NONE',  ( 1.000000000000000000, 0.0000000000000000000, 0.0000000000000000000 ) ) ;
#120 = DIRECTION ( 'NONE',  ( 0.0000000000000000000, 0.0000000000000000000, 1.000000000000000000 ) ) ;
#121 = FACE_OUTER_BOUND ( 'NONE', #60, .T. ) ;
#122 = AXIS2_PLACEMENT_3D ( 'NONE', #132, #128, #141 ) ;
#123 = CARTESIAN_POINT ( 'NONE',  ( 6.349999999999999600, 7.776507174585692200E-016, 0.0000000000000000000 ) ) ;
#124 = CIRCLE ( 'NONE', #122, 6.349999999999999600 ) ;
#125 = AXIS2_PLACEMENT_3D ( 'NONE', #152, #148, #146 ) ;
#126 = DIRECTION ( 'NONE',  ( 1.000000000000000000, 0.0000000000000000000, 0.0000000000000000000 ) ) ;
#127 = LINE ( 'NONE', #162, #142 ) ;
#128 = DIRECTION ( 'NONE',  ( 0.0000000000000000000, 0.0000000000000000000, 1.000000000000000000 ) ) ;
#129 = CARTESIAN_POINT ( 'NONE',  ( 0.0000000000000000000, 0.0000000000000000000, 12.69999999999999900 ) ) ;
#130 = FACE_OUTER_BOUND ( 'NONE', #84, .T. ) ;
#131 = DIRECTION ( 'NONE',  ( 0.0000000000000000000, 0.0000000000000000000, -1.000000000000000000 ) ) ;
#132 = CARTESIAN_POINT ( 'NONE',  ( 0.0000000000000000000, 0.0000000000000000000, 12.69999999999999900 ) ) ;
#133 = DIRECTION ( 'NONE',  ( 0.0000000000000000000, 0.0000000000000000000, -1.000000000000000000 ) ) ;
#134 = VECTOR ( 'NONE', #133, 1000.000000000000000 ) ;
#135 = CARTESIAN_POINT ( 'NONE',  ( 6.349999999999999600, 7.776507174585692200E-016, 12.69999999999999900 ) ) ;
#136 = CARTESIAN_POINT ( 'NONE',  ( 0.0000000000000000000, 0.0000000000000000000, 12.69999999999999900 ) ) ;
#137 = AXIS2_PLACEMENT_3D ( 'NONE', #136, #149, #126 ) ;
#138 = CIRCLE ( 'NONE', #139, 6.349999999999999600 ) ;
#139 = AXIS2_PLACEMENT_3D ( 'NONE', #26, #25, #33 ) ;
#140 = SECURITY_CLASSIFICATION ( '', '', #145 ) ;
#141 = DIRECTION ( 'NONE',  ( 1.000000000000000000, 0.0000000000000000000, 0.0000000000000000000 ) ) ;
#142 = VECTOR ( 'NONE', #161, 1000.000000000000000 ) ;
#143 = CARTESIAN_POINT ( 'NONE',  ( -3.200400000000000100, 0.0000000000000000000, 0.0000000000000000000 ) ) ;
#144 = PERSON_AND_ORGANIZATION ( #245, #202 ) ;
#145 = SECURITY_CLASSIFICATION_LEVEL ( 'unclassified' ) ;
#146 = DIRECTION ( 'NONE',  ( 1.000000000000000000, 0.0000000000000000000, 0.0000000000000000000 ) ) ;
#147 = FACE_BOUND ( 'NONE', #5, .T. ) ;
#148 = DIRECTION ( 'NONE',  ( 0.0000000000000000000, 0.0000000000000000000, 1.000000000000000000 ) ) ;
#149 = DIRECTION ( 'NONE',  ( 0.0000000000000000000, 0.0000000000000000000, 1.000000000000000000 ) ) ;
#150 = CIRCLE ( 'NONE', #125, 6.349999999999999600 ) ;
#151 = PLANE ( 'NONE',  #137 ) ;
#152 = CARTESIAN_POINT ( 'NONE',  ( 0.0000000000000000000, 0.0000000000000000000, 12.69999999999999900 ) ) ;
#153 = PERSON_AND_ORGANIZATION_ROLE ( 'classification_officer' ) ;
#154 = CYLINDRICAL_SURFACE ( 'NONE', #155, 3.200400000000000100 ) ;
#155 = AXIS2_PLACEMENT_3D ( 'NONE', #129, #131, #160 ) ;
#156 = CC_DESIGN_PERSON_AND_ORGANIZATION_ASSIGNMENT ( #144, #153, ( #140 ) ) ;
#157 = CARTESIAN_POINT ( 'NONE',  ( 3.200400000000000100, 3.919359615991189300E-016, 12.69999999999999900 ) ) ;
#158 = CARTESIAN_POINT ( 'NONE',  ( -6.349999999999999600, 0.0000000000000000000, 0.0000000000000000000 ) ) ;
#159 = CARTESIAN_POINT ( 'NONE',  ( 6.349999999999999600, 7.776507174585692200E-016, 12.69999999999999900 ) ) ;
#160 = DIRECTION ( 'NONE',  ( -1.000000000000000000, 0.0000000000000000000, 0.0000000000000000000 ) ) ;
#161 = DIRECTION ( 'NONE',  ( 0.0000000000000000000, 0.0000000000000000000, -1.000000000000000000 ) ) ;
#162 = CARTESIAN_POINT ( 'NONE',  ( -6.349999999999999600, 0.0000000000000000000, 12.69999999999999900 ) ) ;
#163 = LINE ( 'NONE', #135, #134 ) ;
#164 = CARTESIAN_POINT ( 'NONE',  ( 3.200400000000000100, 3.919359615991189300E-016, 12.69999999999999900 ) ) ;
#165 = FACE_OUTER_BOUND ( 'NONE', #90, .T. ) ;
#166 = DIRECTION ( 'NONE',  ( 0.0000000000000000000, 0.0000000000000000000, -1.000000000000000000 ) ) ;
#167 = APPROVAL_STATUS ( 'not_yet_approved' ) ;
#168 = CARTESIAN_POINT ( 'NONE',  ( -6.349999999999999600, 0.0000000000000000000, 12.69999999999999900 ) ) ;
#169 = LINE ( 'NONE', #164, #182 ) ;
#170 = CARTESIAN_POINT ( 'NONE',  ( 0.0000000000000000000, 0.0000000000000000000, 0.0000000000000000000 ) ) ;
#171 = DIRECTION ( 'NONE',  ( 1.000000000000000000, 0.0000000000000000000, 0.0000000000000000000 ) ) ;
#172 = DIRECTION ( 'NONE',  ( 0.0000000000000000000, 0.0000000000000000000, 1.000000000000000000 ) ) ;
#173 = CARTESIAN_POINT ( 'NONE',  ( 0.0000000000000000000, 0.0000000000000000000, 12.69999999999999900 ) ) ;
#174 =( LENGTH_UNIT ( ) NAMED_UNIT ( * ) SI_UNIT ( .MILLI., .METRE. ) );
#175 = CARTESIAN_POINT ( 'NONE',  ( 3.200400000000000100, 3.919359615991189300E-016, 0.0000000000000000000 ) ) ;
#176 = PERSON_AND_ORGANIZATION ( #245, #202 ) ;
#177 = DIRECTION ( 'NONE',  ( 1.000000000000000000, 0.0000000000000000000, 0.0000000000000000000 ) ) ;
#178 = DIRECTION ( 'NONE',  ( 0.0000000000000000000, 0.0000000000000000000, 1.000000000000000000 ) ) ;
#179 = AXIS2_PLACEMENT_3D ( 'NONE', #170, #178, #177 ) ;
#180 = CARTESIAN_POINT ( 'NONE',  ( -3.200400000000000100, 0.0000000000000000000, 12.69999999999999900 ) ) ;
#181 = CIRCLE ( 'NONE', #183, 3.200400000000000100 ) ;
#182 = VECTOR ( 'NONE', #166, 1000.000000000000000 ) ;
#183 = AXIS2_PLACEMENT_3D ( 'NONE', #173, #172, #171 ) ;
#184 = CIRCLE ( 'NONE', #179, 3.200400000000000100 ) ;
#185 = APPROVAL ( #167, 'UNSPECIFIED' ) ;
#186 = APPROVAL_PERSON_ORGANIZATION ( #176, #185, #187 ) ;
#187 = APPROVAL_ROLE ( '' ) ;
#188 = COORDINATED_UNIVERSAL_TIME_OFFSET ( 5, 30, .AHEAD. ) ;
#189 = DIRECTION ( 'NONE',  ( 0.0000000000000000000, 0.0000000000000000000, 1.000000000000000000 ) ) ;
#190 = AXIS2_PLACEMENT_3D ( 'NONE', #191, #189, #195 ) ;
#191 = CARTESIAN_POINT ( 'NONE',  ( 0.0000000000000000000, 0.0000000000000000000, 0.0000000000000000000 ) ) ;
#192 = CALENDAR_DATE ( 2013, 28, 11 ) ;
#193 = LOCAL_TIME ( 12, 52, 13.00000000000000000, #188 ) ;
#194 = DATE_AND_TIME ( #192, #193 ) ;
#195 = DIRECTION ( 'NONE',  ( 1.000000000000000000, 0.0000000000000000000, 0.0000000000000000000 ) ) ;
#196 = CC_DESIGN_APPROVAL ( #185, ( #140 ) ) ;
#197 = APPROVAL_DATE_TIME ( #194, #185 ) ;
#198 = APPLICATION_CONTEXT ( 'configuration controlled 3d designs of mechanical parts and assemblies' ) ;
#199 = CC_DESIGN_PERSON_AND_ORGANIZATION_ASSIGNMENT ( #201, #200, ( #203 ) ) ;
#200 = PERSON_AND_ORGANIZATION_ROLE ( 'design_owner' ) ;
#201 = PERSON_AND_ORGANIZATION ( #245, #202 ) ;
#202 = ORGANIZATION ( 'UNSPECIFIED', 'UNSPECIFIED', '' ) ;
#203 = PRODUCT ( 'B009YLL67C.3D', 'B009YLL67C.3D', '', ( #204 ) ) ;
#204 = MECHANICAL_CONTEXT ( 'NONE', #206, 'mechanical' ) ;
#205 = APPLICATION_PROTOCOL_DEFINITION ( 'international standard', 'config_control_design', 1994, #206 ) ;
#206 = APPLICATION_CONTEXT ( 'configuration controlled 3d designs of mechanical parts and assemblies' ) ;
#207 = PERSON_AND_ORGANIZATION_ROLE ( 'creator' ) ;
#208 = PERSON_AND_ORGANIZATION ( #245, #202 ) ;
#209 = CC_DESIGN_APPROVAL ( #217, ( #220 ) ) ;
#210 = APPROVAL_DATE_TIME ( #211, #217 ) ;
#211 = DATE_AND_TIME ( #212, #213 ) ;
#212 = CALENDAR_DATE ( 2013, 28, 11 ) ;
#213 = LOCAL_TIME ( 12, 52, 13.00000000000000000, #214 ) ;
#214 = COORDINATED_UNIVERSAL_TIME_OFFSET ( 5, 30, .AHEAD. ) ;
#215 = APPROVAL_PERSON_ORGANIZATION ( #219, #217, #216 ) ;
#216 = APPROVAL_ROLE ( '' ) ;
#217 = APPROVAL ( #218, 'UNSPECIFIED' ) ;
#218 = APPROVAL_STATUS ( 'not_yet_approved' ) ;
#219 = PERSON_AND_ORGANIZATION ( #245, #202 ) ;
#220 = PRODUCT_DEFINITION ( 'UNKNOWN', '', #237, #221 ) ;
#221 = DESIGN_CONTEXT ( 'detailed design', #198, 'design' ) ;
#222 = APPLICATION_PROTOCOL_DEFINITION ( 'international standard', 'config_control_design', 1994, #198 ) ;
#223 = CC_DESIGN_PERSON_AND_ORGANIZATION_ASSIGNMENT ( #225, #224, ( #237 ) ) ;
#224 = PERSON_AND_ORGANIZATION_ROLE ( 'creator' ) ;
#225 = PERSON_AND_ORGANIZATION ( #245, #202 ) ;
#226 = CC_DESIGN_APPROVAL ( #234, ( #237 ) ) ;
#227 = APPROVAL_DATE_TIME ( #228, #234 ) ;
#228 = DATE_AND_TIME ( #229, #230 ) ;
#229 = CALENDAR_DATE ( 2013, 28, 11 ) ;
#230 = LOCAL_TIME ( 12, 52, 13.00000000000000000, #231 ) ;
#231 = COORDINATED_UNIVERSAL_TIME_OFFSET ( 5, 30, .AHEAD. ) ;
#232 = APPROVAL_PERSON_ORGANIZATION ( #236, #234, #233 ) ;
#233 = APPROVAL_ROLE ( '' ) ;
#234 = APPROVAL ( #235, 'UNSPECIFIED' ) ;
#235 = APPROVAL_STATUS ( 'not_yet_approved' ) ;
#236 = PERSON_AND_ORGANIZATION ( #245, #202 ) ;
#237 = PRODUCT_DEFINITION_FORMATION_WITH_SPECIFIED_SOURCE ( 'ANY', '', #203, .NOT_KNOWN. ) ;
#238 = CC_DESIGN_DATE_AND_TIME_ASSIGNMENT ( #240, #239, ( #220 ) ) ;
#239 = DATE_TIME_ROLE ( 'creation_date' ) ;
#240 = DATE_AND_TIME ( #241, #242 ) ;
#241 = CALENDAR_DATE ( 2013, 28, 11 ) ;
#242 = LOCAL_TIME ( 12, 52, 13.00000000000000000, #243 ) ;
#243 = COORDINATED_UNIVERSAL_TIME_OFFSET ( 5, 30, .AHEAD. ) ;
#244 = CC_DESIGN_PERSON_AND_ORGANIZATION_ASSIGNMENT ( #208, #207, ( #220 ) ) ;
#245 = PERSON ( 'UNSPECIFIED', 'UNSPECIFIED', 'UNSPECIFIED', ('UNSPECIFIED'), ('UNSPECIFIED'), ('UNSPECIFIED') ) ;
#246 = CC_DESIGN_SECURITY_CLASSIFICATION ( #140, ( #237 ) ) ;
#247 = PRODUCT_RELATED_PRODUCT_CATEGORY ( 'detail', '', ( #203 ) ) ;
#248 = PRODUCT_DEFINITION_SHAPE ( 'NONE', 'NONE',  #220 ) ;
#249 = SHAPE_DEFINITION_REPRESENTATION ( #248, #47 ) ;
ENDSEC;
END-ISO-10303-21;
