ISO-10303-21;
HEADER;
FILE_DESCRIPTION (( 'STEP AP203' ),
    '1' );
FILE_NAME ('B009OJZF3U.3D.STEP',
    '2013-11-19T12:20:31',
    ( '' ),
    ( '' ),
    'SwSTEP 2.0',
    'SolidWorks 2010',
    '' );
FILE_SCHEMA (( 'CONFIG_CONTROL_DESIGN' ));
ENDSEC;

DATA;
#1 = AXIS2_PLACEMENT_3D ( 'NONE', #4, #7, #6 ) ;
#2 = CIRCLE ( 'NONE', #1, 0.05314960629921260100 ) ;
#3 = AXIS2_PLACEMENT_3D ( 'NONE', #5, #11, #10 ) ;
#4 = CARTESIAN_POINT ( 'NONE',  ( 0.0000000000000000000, 0.01968503937007874000, 0.0000000000000000000 ) ) ;
#5 = CARTESIAN_POINT ( 'NONE',  ( 0.0000000000000000000, 0.01968503937007874000, 0.0000000000000000000 ) ) ;
#6 = DIRECTION ( 'NONE',  ( 0.0000000000000000000, 0.0000000000000000000, 1.000000000000000000 ) ) ;
#7 = DIRECTION ( 'NONE',  ( 0.0000000000000000000, 1.000000000000000000, 0.0000000000000000000 ) ) ;
#8 =( NAMED_UNIT ( * ) PLANE_ANGLE_UNIT ( ) SI_UNIT ( $, .RADIAN. ) );
#9 =( NAMED_UNIT ( * ) SI_UNIT ( $, .STERADIAN. ) SOLID_ANGLE_UNIT ( ) );
#10 = DIRECTION ( 'NONE',  ( 0.0000000000000000000, 0.0000000000000000000, -1.000000000000000000 ) ) ;
#11 = DIRECTION ( 'NONE',  ( 0.0000000000000000000, -1.000000000000000000, 0.0000000000000000000 ) ) ;
#12 = UNCERTAINTY_MEASURE_WITH_UNIT (LENGTH_MEASURE( 1.000000000000000100E-005 ), #24, 'distance_accuracy_value', 'NONE');
#13 =( GEOMETRIC_REPRESENTATION_CONTEXT ( 3 ) GLOBAL_UNCERTAINTY_ASSIGNED_CONTEXT ( ( #12 ) ) GLOBAL_UNIT_ASSIGNED_CONTEXT ( ( #24, #8, #9 ) ) REPRESENTATION_CONTEXT ( 'NONE', 'WORKASPACE' ) );
#14 = ADVANCED_BREP_SHAPE_REPRESENTATION ( 'B009OJZF3U.3D', ( #69, #252 ), #13 ) ;
#15 = PLANE ( 'NONE',  #91 ) ;
#16 = AXIS2_PLACEMENT_3D ( 'NONE', #46, #106, #105 ) ;
#17 = DIRECTION ( 'NONE',  ( 0.0000000000000000000, -1.000000000000000000, 0.0000000000000000000 ) ) ;
#18 = CARTESIAN_POINT ( 'NONE',  ( 0.0000000000000000000, 0.01968503937007874000, -0.05314960629921260100 ) ) ;
#19 = CYLINDRICAL_SURFACE ( 'NONE', #16, 0.05314960629921260100 ) ;
#20 = LENGTH_MEASURE_WITH_UNIT ( LENGTH_MEASURE( 0.02539999999999999900 ), #74 );
#21 = EDGE_LOOP ( 'NONE', ( #92, #93 ) ) ;
#22 = ORIENTED_EDGE ( 'NONE', *, *, #95, .T. ) ;
#23 = ADVANCED_FACE ( 'NONE', ( #96, #35 ), #15, .F. ) ;
#24 =( CONVERSION_BASED_UNIT ( 'INCH', #20 ) LENGTH_UNIT ( ) NAMED_UNIT ( #30 ) );
#25 = EDGE_CURVE ( 'NONE', #88, #27, #73, .T. ) ;
#26 = EDGE_CURVE ( 'NONE', #63, #62, #34, .T. ) ;
#27 = VERTEX_POINT ( 'NONE', #44 ) ;
#28 = AXIS2_PLACEMENT_3D ( 'NONE', #101, #45, #36 ) ;
#29 = CARTESIAN_POINT ( 'NONE',  ( 0.0000000000000000000, 0.01968503937007874000, 0.0000000000000000000 ) ) ;
#30 = DIMENSIONAL_EXPONENTS ( 1.000000000000000000, 0.0000000000000000000, 0.0000000000000000000, 0.0000000000000000000, 0.0000000000000000000, 0.0000000000000000000, 0.0000000000000000000 ) ;
#31 = CYLINDRICAL_SURFACE ( 'NONE', #28, 0.05314960629921260100 ) ;
#32 = ADVANCED_FACE ( 'NONE', ( #43 ), #31, .F. ) ;
#33 = EDGE_LOOP ( 'NONE', ( #68, #79, #76, #60 ) ) ;
#34 = LINE ( 'NONE', #18, #47 ) ;
#35 = FACE_BOUND ( 'NONE', #113, .T. ) ;
#36 = DIRECTION ( 'NONE',  ( 0.0000000000000000000, 0.0000000000000000000, -1.000000000000000000 ) ) ;
#37 = FACE_OUTER_BOUND ( 'NONE', #33, .T. ) ;
#38 = ADVANCED_FACE ( 'NONE', ( #37 ), #19, .F. ) ;
#39 = ORIENTED_EDGE ( 'NONE', *, *, #77, .T. ) ;
#40 = EDGE_CURVE ( 'NONE', #61, #62, #98, .T. ) ;
#41 = EDGE_LOOP ( 'NONE', ( #49, #52, #48, #50 ) ) ;
#42 = CLOSED_SHELL ( 'NONE', ( #38, #59, #112, #23, #53, #32 ) ) ;
#43 = FACE_OUTER_BOUND ( 'NONE', #114, .T. ) ;
#44 = CARTESIAN_POINT ( 'NONE',  ( 0.0000000000000000000, 0.0000000000000000000, -0.1181102362204724500 ) ) ;
#45 = DIRECTION ( 'NONE',  ( 0.0000000000000000000, -1.000000000000000000, 0.0000000000000000000 ) ) ;
#46 = CARTESIAN_POINT ( 'NONE',  ( 0.0000000000000000000, 0.01968503937007874000, 0.0000000000000000000 ) ) ;
#47 = VECTOR ( 'NONE', #17, 39.37007874015748100 ) ;
#48 = ORIENTED_EDGE ( 'NONE', *, *, #110, .T. ) ;
#49 = ORIENTED_EDGE ( 'NONE', *, *, #67, .F. ) ;
#50 = ORIENTED_EDGE ( 'NONE', *, *, #94, .T. ) ;
#51 = ORIENTED_EDGE ( 'NONE', *, *, #25, .F. ) ;
#52 = ORIENTED_EDGE ( 'NONE', *, *, #95, .F. ) ;
#53 = ADVANCED_FACE ( 'NONE', ( #87 ), #99, .T. ) ;
#54 = VERTEX_POINT ( 'NONE', #119 ) ;
#55 = VERTEX_POINT ( 'NONE', #120 ) ;
#56 = EDGE_LOOP ( 'NONE', ( #90, #111, #89, #81 ) ) ;
#57 = EDGE_LOOP ( 'NONE', ( #83, #51 ) ) ;
#58 = EDGE_CURVE ( 'NONE', #64, #63, #2, .T. ) ;
#59 = ADVANCED_FACE ( 'NONE', ( #122 ), #121, .T. ) ;
#60 = ORIENTED_EDGE ( 'NONE', *, *, #26, .F. ) ;
#61 = VERTEX_POINT ( 'NONE', #127 ) ;
#62 = VERTEX_POINT ( 'NONE', #125 ) ;
#63 = VERTEX_POINT ( 'NONE', #123 ) ;
#64 = VERTEX_POINT ( 'NONE', #150 ) ;
#65 = EDGE_CURVE ( 'NONE', #64, #61, #152, .T. ) ;
#66 = EDGE_CURVE ( 'NONE', #55, #54, #148, .T. ) ;
#67 = EDGE_CURVE ( 'NONE', #55, #88, #171, .T. ) ;
#68 = ORIENTED_EDGE ( 'NONE', *, *, #78, .T. ) ;
#69 = MANIFOLD_SOLID_BREP ( 'Imported1', #42 ) ;
#70 = DIRECTION ( 'NONE',  ( 0.0000000000000000000, 1.000000000000000000, 0.0000000000000000000 ) ) ;
#71 = CARTESIAN_POINT ( 'NONE',  ( 0.0000000000000000000, 0.0000000000000000000, 0.0000000000000000000 ) ) ;
#72 = AXIS2_PLACEMENT_3D ( 'NONE', #71, #70, #103 ) ;
#73 = CIRCLE ( 'NONE', #72, 0.1181102362204724500 ) ;
#74 =( LENGTH_UNIT ( ) NAMED_UNIT ( * ) SI_UNIT ( $, .METRE. ) );
#75 = DIRECTION ( 'NONE',  ( 0.0000000000000000000, 0.0000000000000000000, 1.000000000000000000 ) ) ;
#76 = ORIENTED_EDGE ( 'NONE', *, *, #77, .F. ) ;
#77 = EDGE_CURVE ( 'NONE', #62, #61, #165, .T. ) ;
#78 = EDGE_CURVE ( 'NONE', #63, #64, #166, .T. ) ;
#79 = ORIENTED_EDGE ( 'NONE', *, *, #65, .T. ) ;
#80 = EDGE_LOOP ( 'NONE', ( #22, #82 ) ) ;
#81 = ORIENTED_EDGE ( 'NONE', *, *, #110, .F. ) ;
#82 = ORIENTED_EDGE ( 'NONE', *, *, #66, .T. ) ;
#83 = ORIENTED_EDGE ( 'NONE', *, *, #94, .F. ) ;
#84 = DIRECTION ( 'NONE',  ( 0.0000000000000000000, 1.000000000000000000, 0.0000000000000000000 ) ) ;
#85 = CARTESIAN_POINT ( 'NONE',  ( 0.0000000000000000000, 0.0000000000000000000, 0.0000000000000000000 ) ) ;
#86 = CARTESIAN_POINT ( 'NONE',  ( 0.0000000000000000000, 0.0000000000000000000, 0.0000000000000000000 ) ) ;
#87 = FACE_OUTER_BOUND ( 'NONE', #41, .T. ) ;
#88 = VERTEX_POINT ( 'NONE', #160 ) ;
#89 = ORIENTED_EDGE ( 'NONE', *, *, #25, .T. ) ;
#90 = ORIENTED_EDGE ( 'NONE', *, *, #66, .F. ) ;
#91 = AXIS2_PLACEMENT_3D ( 'NONE', #85, #84, #75 ) ;
#92 = ORIENTED_EDGE ( 'NONE', *, *, #78, .F. ) ;
#93 = ORIENTED_EDGE ( 'NONE', *, *, #58, .F. ) ;
#94 = EDGE_CURVE ( 'NONE', #27, #88, #141, .T. ) ;
#95 = EDGE_CURVE ( 'NONE', #54, #55, #156, .T. ) ;
#96 = FACE_OUTER_BOUND ( 'NONE', #57, .T. ) ;
#97 = ORIENTED_EDGE ( 'NONE', *, *, #65, .F. ) ;
#98 = CIRCLE ( 'NONE', #104, 0.05314960629921260100 ) ;
#99 = CYLINDRICAL_SURFACE ( 'NONE', #102, 0.1181102362204724500 ) ;
#100 = DIRECTION ( 'NONE',  ( 0.0000000000000000000, 1.000000000000000000, 0.0000000000000000000 ) ) ;
#101 = CARTESIAN_POINT ( 'NONE',  ( 0.0000000000000000000, 0.01968503937007874000, 0.0000000000000000000 ) ) ;
#102 = AXIS2_PLACEMENT_3D ( 'NONE', #29, #108, #107 ) ;
#103 = DIRECTION ( 'NONE',  ( 0.0000000000000000000, 0.0000000000000000000, 1.000000000000000000 ) ) ;
#104 = AXIS2_PLACEMENT_3D ( 'NONE', #86, #100, #109 ) ;
#105 = DIRECTION ( 'NONE',  ( 0.0000000000000000000, 0.0000000000000000000, -1.000000000000000000 ) ) ;
#106 = DIRECTION ( 'NONE',  ( 0.0000000000000000000, -1.000000000000000000, 0.0000000000000000000 ) ) ;
#107 = DIRECTION ( 'NONE',  ( 0.0000000000000000000, 0.0000000000000000000, -1.000000000000000000 ) ) ;
#108 = DIRECTION ( 'NONE',  ( 0.0000000000000000000, -1.000000000000000000, 0.0000000000000000000 ) ) ;
#109 = DIRECTION ( 'NONE',  ( 0.0000000000000000000, 0.0000000000000000000, 1.000000000000000000 ) ) ;
#110 = EDGE_CURVE ( 'NONE', #54, #27, #135, .T. ) ;
#111 = ORIENTED_EDGE ( 'NONE', *, *, #67, .T. ) ;
#112 = ADVANCED_FACE ( 'NONE', ( #157, #133 ), #144, .T. ) ;
#113 = EDGE_LOOP ( 'NONE', ( #39, #118 ) ) ;
#114 = EDGE_LOOP ( 'NONE', ( #97, #115, #116, #117 ) ) ;
#115 = ORIENTED_EDGE ( 'NONE', *, *, #58, .T. ) ;
#116 = ORIENTED_EDGE ( 'NONE', *, *, #26, .T. ) ;
#117 = ORIENTED_EDGE ( 'NONE', *, *, #40, .F. ) ;
#118 = ORIENTED_EDGE ( 'NONE', *, *, #40, .T. ) ;
#119 = CARTESIAN_POINT ( 'NONE',  ( 0.0000000000000000000, 0.01968503937007874000, -0.1181102362204724500 ) ) ;
#120 = CARTESIAN_POINT ( 'NONE',  ( 1.446433227339393800E-017, 0.01968503937007874000, 0.1181102362204724500 ) ) ;
#121 = CYLINDRICAL_SURFACE ( 'NONE', #3, 0.1181102362204724500 ) ;
#122 = FACE_OUTER_BOUND ( 'NONE', #56, .T. ) ;
#123 = CARTESIAN_POINT ( 'NONE',  ( 0.0000000000000000000, 0.01968503937007874000, -0.05314960629921260100 ) ) ;
#124 = VECTOR ( 'NONE', #162, 39.37007874015748100 ) ;
#125 = CARTESIAN_POINT ( 'NONE',  ( 0.0000000000000000000, 0.0000000000000000000, -0.05314960629921260100 ) ) ;
#126 = DIRECTION ( 'NONE',  ( 0.0000000000000000000, 0.0000000000000000000, 1.000000000000000000 ) ) ;
#127 = CARTESIAN_POINT ( 'NONE',  ( 6.508949523027271000E-018, 0.0000000000000000000, 0.05314960629921260100 ) ) ;
#128 = AXIS2_PLACEMENT_3D ( 'NONE', #147, #146, #145 ) ;
#129 = DIRECTION ( 'NONE',  ( 0.0000000000000000000, 0.0000000000000000000, 1.000000000000000000 ) ) ;
#130 = DIRECTION ( 'NONE',  ( 0.0000000000000000000, 1.000000000000000000, 0.0000000000000000000 ) ) ;
#131 = AXIS2_PLACEMENT_3D ( 'NONE', #139, #130, #129 ) ;
#132 = DIRECTION ( 'NONE',  ( 0.0000000000000000000, -1.000000000000000000, 0.0000000000000000000 ) ) ;
#133 = FACE_BOUND ( 'NONE', #21, .T. ) ;
#134 = CARTESIAN_POINT ( 'NONE',  ( 0.0000000000000000000, 0.01968503937007874000, -0.1181102362204724500 ) ) ;
#135 = LINE ( 'NONE', #134, #140 ) ;
#136 = DIRECTION ( 'NONE',  ( 0.0000000000000000000, 0.0000000000000000000, 1.000000000000000000 ) ) ;
#137 = DIRECTION ( 'NONE',  ( 0.0000000000000000000, 1.000000000000000000, 0.0000000000000000000 ) ) ;
#138 = AXIS2_PLACEMENT_3D ( 'NONE', #143, #137, #136 ) ;
#139 = CARTESIAN_POINT ( 'NONE',  ( 0.0000000000000000000, 0.01968503937007874000, 0.0000000000000000000 ) ) ;
#140 = VECTOR ( 'NONE', #132, 39.37007874015748100 ) ;
#141 = CIRCLE ( 'NONE', #138, 0.1181102362204724500 ) ;
#142 = AXIS2_PLACEMENT_3D ( 'NONE', #158, #159, #126 ) ;
#143 = CARTESIAN_POINT ( 'NONE',  ( 0.0000000000000000000, 0.0000000000000000000, 0.0000000000000000000 ) ) ;
#144 = PLANE ( 'NONE',  #128 ) ;
#145 = DIRECTION ( 'NONE',  ( 0.0000000000000000000, 0.0000000000000000000, 1.000000000000000000 ) ) ;
#146 = DIRECTION ( 'NONE',  ( 0.0000000000000000000, 1.000000000000000000, 0.0000000000000000000 ) ) ;
#147 = CARTESIAN_POINT ( 'NONE',  ( 0.0000000000000000000, 0.01968503937007874000, 0.0000000000000000000 ) ) ;
#148 = CIRCLE ( 'NONE', #149, 0.1181102362204724500 ) ;
#149 = AXIS2_PLACEMENT_3D ( 'NONE', #151, #164, #163 ) ;
#150 = CARTESIAN_POINT ( 'NONE',  ( 6.508949523027271000E-018, 0.01968503937007874000, 0.05314960629921260100 ) ) ;
#151 = CARTESIAN_POINT ( 'NONE',  ( 0.0000000000000000000, 0.01968503937007874000, 0.0000000000000000000 ) ) ;
#152 = LINE ( 'NONE', #169, #168 ) ;
#153 = DIRECTION ( 'NONE',  ( 0.0000000000000000000, 0.0000000000000000000, 1.000000000000000000 ) ) ;
#154 = DIRECTION ( 'NONE',  ( 0.0000000000000000000, 1.000000000000000000, 0.0000000000000000000 ) ) ;
#155 = CARTESIAN_POINT ( 'NONE',  ( 0.0000000000000000000, 0.0000000000000000000, 0.0000000000000000000 ) ) ;
#156 = CIRCLE ( 'NONE', #131, 0.1181102362204724500 ) ;
#157 = FACE_OUTER_BOUND ( 'NONE', #80, .T. ) ;
#158 = CARTESIAN_POINT ( 'NONE',  ( 0.0000000000000000000, 0.01968503937007874000, 0.0000000000000000000 ) ) ;
#159 = DIRECTION ( 'NONE',  ( 0.0000000000000000000, 1.000000000000000000, 0.0000000000000000000 ) ) ;
#160 = CARTESIAN_POINT ( 'NONE',  ( 1.446433227339393800E-017, 0.0000000000000000000, 0.1181102362204724500 ) ) ;
#161 = AXIS2_PLACEMENT_3D ( 'NONE', #155, #154, #153 ) ;
#162 = DIRECTION ( 'NONE',  ( 0.0000000000000000000, -1.000000000000000000, 0.0000000000000000000 ) ) ;
#163 = DIRECTION ( 'NONE',  ( 0.0000000000000000000, 0.0000000000000000000, 1.000000000000000000 ) ) ;
#164 = DIRECTION ( 'NONE',  ( 0.0000000000000000000, 1.000000000000000000, 0.0000000000000000000 ) ) ;
#165 = CIRCLE ( 'NONE', #161, 0.05314960629921260100 ) ;
#166 = CIRCLE ( 'NONE', #142, 0.05314960629921260100 ) ;
#167 = DIRECTION ( 'NONE',  ( 0.0000000000000000000, -1.000000000000000000, 0.0000000000000000000 ) ) ;
#168 = VECTOR ( 'NONE', #167, 39.37007874015748100 ) ;
#169 = CARTESIAN_POINT ( 'NONE',  ( 6.508949523027271000E-018, 0.01968503937007874000, 0.05314960629921260100 ) ) ;
#170 = CARTESIAN_POINT ( 'NONE',  ( 1.446433227339393800E-017, 0.01968503937007874000, 0.1181102362204724500 ) ) ;
#171 = LINE ( 'NONE', #170, #124 ) ;
#172 = PRODUCT_DEFINITION_SHAPE ( 'NONE', 'NONE',  #229 ) ;
#173 = PRODUCT_RELATED_PRODUCT_CATEGORY ( 'detail', '', ( #188 ) ) ;
#174 = CC_DESIGN_SECURITY_CLASSIFICATION ( #250, ( #208 ) ) ;
#175 = CC_DESIGN_APPROVAL ( #238, ( #250 ) ) ;
#176 = APPROVAL_DATE_TIME ( #177, #238 ) ;
#177 = DATE_AND_TIME ( #178, #179 ) ;
#178 = CALENDAR_DATE ( 2013, 19, 11 ) ;
#179 = LOCAL_TIME ( 17, 50, 31.00000000000000000, #180 ) ;
#180 = COORDINATED_UNIVERSAL_TIME_OFFSET ( 5, 30, .AHEAD. ) ;
#181 = APPROVAL_PERSON_ORGANIZATION ( #240, #238, #182 ) ;
#182 = APPROVAL_ROLE ( '' ) ;
#183 = SHAPE_DEFINITION_REPRESENTATION ( #172, #14 ) ;
#184 = MECHANICAL_CONTEXT ( 'NONE', #189, 'mechanical' ) ;
#185 = APPLICATION_PROTOCOL_DEFINITION ( 'international standard', 'config_control_design', 1994, #189 ) ;
#186 = DIRECTION ( 'NONE',  ( 1.000000000000000000, 0.0000000000000000000, 0.0000000000000000000 ) ) ;
#187 = PERSON ( 'UNSPECIFIED', 'UNSPECIFIED', 'UNSPECIFIED', ('UNSPECIFIED'), ('UNSPECIFIED'), ('UNSPECIFIED') ) ;
#188 = PRODUCT ( 'B009OJZF3U.3D', 'B009OJZF3U.3D', '', ( #184 ) ) ;
#189 = APPLICATION_CONTEXT ( 'configuration controlled 3d designs of mechanical parts and assemblies' ) ;
#190 = CC_DESIGN_PERSON_AND_ORGANIZATION_ASSIGNMENT ( #192, #191, ( #208 ) ) ;
#191 = PERSON_AND_ORGANIZATION_ROLE ( 'design_supplier' ) ;
#192 = PERSON_AND_ORGANIZATION ( #187, #237 ) ;
#193 = CC_DESIGN_PERSON_AND_ORGANIZATION_ASSIGNMENT ( #195, #194, ( #208 ) ) ;
#194 = PERSON_AND_ORGANIZATION_ROLE ( 'creator' ) ;
#195 = PERSON_AND_ORGANIZATION ( #187, #237 ) ;
#196 = CC_DESIGN_APPROVAL ( #203, ( #208 ) ) ;
#197 = APPROVAL_DATE_TIME ( #198, #203 ) ;
#198 = DATE_AND_TIME ( #199, #200 ) ;
#199 = CALENDAR_DATE ( 2013, 19, 11 ) ;
#200 = LOCAL_TIME ( 17, 50, 31.00000000000000000, #201 ) ;
#201 = COORDINATED_UNIVERSAL_TIME_OFFSET ( 5, 30, .AHEAD. ) ;
#202 = APPROVAL_PERSON_ORGANIZATION ( #207, #203, #205 ) ;
#203 = APPROVAL ( #206, 'UNSPECIFIED' ) ;
#204 = CARTESIAN_POINT ( 'NONE',  ( 0.0000000000000000000, 0.0000000000000000000, 0.0000000000000000000 ) ) ;
#205 = APPROVAL_ROLE ( '' ) ;
#206 = APPROVAL_STATUS ( 'not_yet_approved' ) ;
#207 = PERSON_AND_ORGANIZATION ( #187, #237 ) ;
#208 = PRODUCT_DEFINITION_FORMATION_WITH_SPECIFIED_SOURCE ( 'ANY', '', #188, .NOT_KNOWN. ) ;
#209 = CC_DESIGN_DATE_AND_TIME_ASSIGNMENT ( #211, #210, ( #229 ) ) ;
#210 = DATE_TIME_ROLE ( 'creation_date' ) ;
#211 = DATE_AND_TIME ( #212, #213 ) ;
#212 = CALENDAR_DATE ( 2013, 19, 11 ) ;
#213 = LOCAL_TIME ( 17, 50, 31.00000000000000000, #214 ) ;
#214 = COORDINATED_UNIVERSAL_TIME_OFFSET ( 5, 30, .AHEAD. ) ;
#215 = CC_DESIGN_PERSON_AND_ORGANIZATION_ASSIGNMENT ( #217, #216, ( #229 ) ) ;
#216 = PERSON_AND_ORGANIZATION_ROLE ( 'creator' ) ;
#217 = PERSON_AND_ORGANIZATION ( #187, #237 ) ;
#218 = CC_DESIGN_APPROVAL ( #226, ( #229 ) ) ;
#219 = APPROVAL_DATE_TIME ( #220, #226 ) ;
#220 = DATE_AND_TIME ( #221, #222 ) ;
#221 = CALENDAR_DATE ( 2013, 19, 11 ) ;
#222 = LOCAL_TIME ( 17, 50, 31.00000000000000000, #223 ) ;
#223 = COORDINATED_UNIVERSAL_TIME_OFFSET ( 5, 30, .AHEAD. ) ;
#224 = APPROVAL_PERSON_ORGANIZATION ( #228, #226, #225 ) ;
#225 = APPROVAL_ROLE ( '' ) ;
#226 = APPROVAL ( #227, 'UNSPECIFIED' ) ;
#227 = APPROVAL_STATUS ( 'not_yet_approved' ) ;
#228 = PERSON_AND_ORGANIZATION ( #187, #237 ) ;
#229 = PRODUCT_DEFINITION ( 'UNKNOWN', '', #208, #230 ) ;
#230 = DESIGN_CONTEXT ( 'detailed design', #233, 'design' ) ;
#231 = DIRECTION ( 'NONE',  ( 0.0000000000000000000, 0.0000000000000000000, 1.000000000000000000 ) ) ;
#232 = APPLICATION_PROTOCOL_DEFINITION ( 'international standard', 'config_control_design', 1994, #233 ) ;
#233 = APPLICATION_CONTEXT ( 'configuration controlled 3d designs of mechanical parts and assemblies' ) ;
#234 = CC_DESIGN_PERSON_AND_ORGANIZATION_ASSIGNMENT ( #236, #235, ( #188 ) ) ;
#235 = PERSON_AND_ORGANIZATION_ROLE ( 'design_owner' ) ;
#236 = PERSON_AND_ORGANIZATION ( #187, #237 ) ;
#237 = ORGANIZATION ( 'UNSPECIFIED', 'UNSPECIFIED', '' ) ;
#238 = APPROVAL ( #239, 'UNSPECIFIED' ) ;
#239 = APPROVAL_STATUS ( 'not_yet_approved' ) ;
#240 = PERSON_AND_ORGANIZATION ( #187, #237 ) ;
#241 = CC_DESIGN_DATE_AND_TIME_ASSIGNMENT ( #243, #242, ( #250 ) ) ;
#242 = DATE_TIME_ROLE ( 'classification_date' ) ;
#243 = DATE_AND_TIME ( #244, #245 ) ;
#244 = CALENDAR_DATE ( 2013, 19, 11 ) ;
#245 = LOCAL_TIME ( 17, 50, 31.00000000000000000, #246 ) ;
#246 = COORDINATED_UNIVERSAL_TIME_OFFSET ( 5, 30, .AHEAD. ) ;
#247 = CC_DESIGN_PERSON_AND_ORGANIZATION_ASSIGNMENT ( #249, #248, ( #250 ) ) ;
#248 = PERSON_AND_ORGANIZATION_ROLE ( 'classification_officer' ) ;
#249 = PERSON_AND_ORGANIZATION ( #187, #237 ) ;
#250 = SECURITY_CLASSIFICATION ( '', '', #251 ) ;
#251 = SECURITY_CLASSIFICATION_LEVEL ( 'unclassified' ) ;
#252 = AXIS2_PLACEMENT_3D ( 'NONE', #204, #231, #186 ) ;
ENDSEC;
END-ISO-10303-21;
